Cifra Club

Quando Essa Igreja Ora

Thalles Roberto

Tab de baixo: Principal
Intro:
G|--------------------------------------|
D|----------------5-5-5-----------------|
A|-5-5-x--3-3------------2-2-3-3-x-4-4--|
E|-------------3------------------------|


Riff 1: (mesma coisa da intro)
G|--------------------------------------|
D|----------------5-5-5-----------------|
A|-5-5-x--3-3------------2-2-3-3-x-4-4--|
E|-------------3------------------------|


Riff 2:
G|------------------------|
D|----7-5-x-4-------------|
A|------------x-7--x-5h-7-|(2x)
E|--5---------------------|


Riff 3:
G|---------------10\-11----|
D|---------10-12--------12-|
A|--10h-12-----------------|(2x)
E|-------------------------|


Riff 4:
G|--------------------------------------|
D|---------3-------------------3--------|
A|-3-3-5-5---3-3-5-5-5-3-3-5-5---3-5-5--|
E|--------------------------------------|


(Riff 1)
Quando essa Igreja ora, Deus começa a operar
                                                 (Riff 2)
Todos os cativos são libertos pela presença de Jesus.
(Riff 1)
'Invoca-me e te responderei' Assim diz o Senhor.
                                    (Riff 2)
Levante tuas mãos agora e clame a Jesus


C               G                         (Riff 3)
Eu sei que esse nome tem poder pra libertar
C                 G                     (Riff 4)
Não há nada e ninguém que possa resistir
C           G            (Riff 3)
Ao poder do nome de Jesus
C           G                (Intro)
Ao poder do nome ... de Jesus


(Riff 1)
Quando essa Igreja ora, Deus começa a operar
                                                    (Riff 2)
Todos os enfermos são curados pela presença de Jesus
(Riff 1)
'Invoca-me e te responderei' Assim diz o Senhor
                                       (Riff 2)
Levante tuas mãos agora e clame a Jesus




Solo da Guitarra: 

G|----------------------------------|
D|----------------------------------|
A|----------------------------------|(3x)
E|-0-0-0-0-3-3-3-3-5-5-5-5-5-5-3-3--|

G|----------------------------------|
D|----------------------------------|
A|-3-3-3-3-3-3-3-3-3-3-3-3-3-3-3-3--|
E|----------------------------------|


Final: 

Na última parte da música, o contrabaixo faz o Riff 1 e o Riff 4, sendo que no Riff 1, o baixo faz alguns arranjos em D e C.
exibições 13.427
Composição: Thalles Roberto Colaboração e revisão:
  • Victor Rodrigues

0 comentários

mostrar mais comentários

Conseguiu tocar?

7 tocaram 0 ainda não

Grave um vídeo tocando Quando Essa Igreja Ora e mande pra gente!

00:00 / 00:00
outros vídeos desta música
repetir qualidade Automático
Outros vídeos desta música
00:00 / 00:00
Automático
OK