Cifra Club

Aprenda

Brandon Lee

The 69 Eyes

Cifra: Principal (violão e guitarra)
tom: D
Normal tuning 
 
  C#   E    F#   A    B7 
I----I----I----I----I----I 
I----I----I----I----I----I 
I-6--I-9--I----I----I----I 
I-6--I-9--I-4--I----I----I 
I-4--I-7--I-4--I-7--I-6--I 
I----I----I-2--I-5--I-7--I 

Intro 
e|-0-----------0----4------------0--------------------------------I 
B|-5-5-5-4-4-4-5-5-5-5-5-5-4-4-4-5-5-5-4-4-4-5-5-7-7-7-5-5-5-4-4-4I 
G|----------------------------------------------------------------I 
D|----------------------------------------------------------------I 
A|----------------------------------------------------------------I 
E|----------------------------------------------------------------I 
                                                   F# 
e|-0-----------0----4------------0--------------------------------I 
B|-5-5-5-4-4-4-5-5-5-5-5-5-4-4-4-5-5-5-4-4-4-5-5-5-7-7-7-7-7-7-7-7I 
G|----------------------------------------------------------------I 
D|----------------------------------------------------------------I 
A|----------------------------------------------------------------I 
E|----------------------------------------------------------------I 
 
C#                                     A               B 
e|---------------4----------------------------------2-------------I 
B|-5---4--2--0-------5---4--2-0--2----5---4--2--0------5--4-2-0-2-I 
G|----------------------------------------------------------------I 
D|----------------------------------------------------------------I 
A|----------------------------------------------------------------I 
E|----------------------------------------------------------------I 
 
  C#             B               A                 F# 
e|---------------4---------------------------------2--------------I 
B|-5---4--2--0-------5---4--2-0--2----5---4--2--0------5--4-2-0-2-I 
G|----------------------------------------------------------------I 
D|----------------------------------------------------------------I 
A|----------------------------------------------------------------I 
E|----------------------------------------------------------------I 
 
C#                            E               B7 
What would there be, as the river of sadness turns into sea, 
 
A|----7-7-6-4--------I 
 
C#                       E                     F# 
Could there be, another thousand stories like you and me, 
 
A|----7-7-6-4---------I 
 
C#                        E               B7                    C# 
Wanted a heart, wanted a soul more than anything else in this world, 
 
A|----7-7-6-4--------I 
           B         A 
but we are doomed our flesh wounds, 
 
F# 
I would never give in... 
 
Chorus 
C#                                    A           B 
e|---------------4--------------------------------2--------------I 
B|-5---4--2--0-------5---4--2-0--2----5---4--2--0------5--4-2-0-2I 
G|---------------------------------------------------------------I 
D|---------------------------------------------------------------I 
A|---------------------------------------------------------------I 
E|---------------------------------------------------------------I 
      Just like the moon does,      We rise `n`   shine`n`  fall, 
 
C#              B             A                 F# 
e|--------------4-------------------------------2-------------I 
B|-5---4--2--0-----5---4--2-0--2----5---4--2--0-----5--4-2-0-2I 
G|------------------------------------------------------------I 
D|------------------------------------------------------------I 
A|------------------------------------------------------------I 
E|------------------------------------------------------------I 
Over      you that I,rise`n``shine`n`crawl victims aren`t we all 
 
C#                   E                   B7 
What would there be,beyond the eyes of Brandon Lee 
 
A|----7-7-6-4--------I 
 
C#                 E             F# 
Could there be,a revening angel left to bleed 
 
A|----7-7-6-4--------I 
 
C#                              E             B7 
Wanted the thruth,wanted the faith more than anything else in this 
 
C# 
world, 
 
A|----7-7-6-4--------I 
            B             A 
but we are doomed body and soul marooned, 
 
F# 
I would never give in... 
 
Chorus:    2x 
 
Bridge 
e|-----------------------------------------------------------I 
B|-----------------------------------------------------------I 
G|-----------------------------------------------------------I 
D|-----------------6----6----------------------------6-------I 
A|----7-----7------4----4-----7------7----6----4-2-6-4-------I 
E|----5-----5-----------------5------5----4----2-0-----------I 
             aren`t we all, aren`t we all 
e|-0-----------0----4------------0----------------------------------I 
B|-5-5-5-4-4-4-5-5-5-5-5-5-4-4-4-5-5-5-4-4-4-5-5-5-7-7-7-5-5-5-4-4-4I 
G|------------------------------------------------------------------I 
D|------------------------------------------------------------------I 
A|------------------------------------------------------------------I 
E|------------------------------------------------------------------I 
                                                               F#m 
e|-0-----------0----4------------0----------------------------------I 
B|-5-5-5-4-4-4-5-5-5-5-5-5-4-4-4-5-5-5-4-4-4-5-5-5-7-7-7-7-7-7-7-7--I 
G|------------------------------------------------------------------I 
D|------------------------------------------------------------------I 
A|------------------------------------------------------------------I 
E|------------------------------------------------------------------I 
 
Chorus:2x 
 
Coda  
e|--------------------------------------------------------I 
B|--------------------------------------------------------I 
G|--------------------------------------------------------I 
D|--------------------------------------------------------I 
G|----6---------------------6-----------------------------I 
A|----4----9---7------------4---9---7---------------------I 
E|---------7---5----------------7---5---------------------I 
              aren`t we all         aren`t we all 
 
e|--------------------------------------------------------I 
B|--------------------------------------------------------I 
G|--------------------------------------------------------I 
D|----6---------------------6------------------6----------I 
A|----4----9---7------------4---9---7----------4----------I 
E|---------7---9----------------7---5---------------------I 
                                                  Angel
Compositor não encontrado.
Colaboração e revisão:
  • Hellektra
2.446 exibições
    • ½ Tom
    • A
    • Bb
    • B
    • C
    • Db
    • D
    • Eb
    • E
    • F
    • F#
    • G
    • Ab
  • Adicionar à lista

    0 comentários

    Ver todos os comentários

    Conseguiu tocar?

    0 Tocaram 0 Ainda não

    Grave um vídeo tocando Brandon Lee e nos envie!

    00:00 / 00:00
    Outros vídeos desta música
    Repetir Qualidade Automático
    Outros vídeos desta música
    00:00 / 00:00
    Automático

    Cifra Club Pro

    Aproveite o Cifra Club com benefícios exclusivos e sem anúncios
    Cifra Club Pro
    Aproveite o Cifra Club com benefícios exclusivos e sem anúncios
    OK