Cifra Club

The Fever

The Academy Is...

Cifra: Principal (violão e guitarra)
tom: D
Intro
e|---x-----0-------x-x-x---x---x--x-x--x-x-x-x-------------------------------|
B|---3-----0-------3-3-3---3---3--3-3--3-3-3-3-------------------------------|
G|---4-----0-------2-2-2---2---2--2-2--2-2-2-2-------------------------------|
D|---5-----2-------x-x-x---x---0--0-0--0-0-0-0-------------------------------|
A|---5-----2-------2-2-2---2---0--0-0--0-0-0-0-------------------------------|
E|---x-----0-------x-x-x---x---x--x-x--x-x-x-x-------------------------------|

Verse Pt 1
e|---------------------------------------------------------------------------|
B|---8~---------------------8-8-8--8-8-8-8-----------------------------------|
G|---7~---------------------7-7-7--7-7-7-7-----------------------------------|
D|---x~---------------------x-x-x--x-x-x-x-----------------------------------|
A|---7~---------------------7-7-7--7-7-7-7-----------------------------------|
E|---------------------------------------------------------------------------|

  (repete essa parte uma vez)
e|---x-x-x---x---x--x-x--x-x-x-x-------------------------------|
B|---3-3-3---3---3--3-3--3-3-3-3-------------------------------|
G|---2-2-2---2---2--2-2--2-2-2-2-------------------------------|
D|---x-x-x---x---0--0-0--0-0-0-0-------------------------------|
A|---2-2-2---2---0--0-0--0-0-0-0-------------------------------|
E|---x-x-x---x---x--x-x--x-x-x-x-------------------------------|

Chorus
e|---x--x--x-x-x----0--0-0--0-0-0-0----2--2--2-2-2-2--2-2--2-2-2-2------------|
B|---3--3--3-3-3----2--2-2--2-2-2-2----3--3--3-3-3-3--3-3--3-3-3-3------------|
G|---0--0--0-0-0----2--2-2--2-2-2-2----4--4--4-4-4-4--4-4--4-4-4-4------------|
D|---0--0--0-0-0----2--2-2--2-2-2-2----4--4--4-4-4-4--4-4--4-4-4-4------------|
A|---2--2--2-2-2----0--0-0--0-0-0-0----2--2--2-2-2-2--2-2--2-2-2-2------------|
E|---3--3--3-3-3----x--x-x--x-x-x-x-------------------------------------------|

e|---0---3---0---0---------------------------------------------------------------|
B|---0---3---0---2---------------------------------------------------------------|
G|---1---0---1---2---------------------------------------------------------------|
D|---2---0---2---2---------------------------------------------------------------|
A|---2---2---2---0---------------------------------------------------------------|
E|---0---3---0---x---------------------------------------------------------------|

Bridge  repete uma vez
e|---0---0---2---0---------------------------------------------------------------|
B|---3---2---2---0---------------------------------------------------------------|
G|---4---2---0---1---------------------------------------------------------------|
D|---4---2---0---2---------------------------------------------------------------|
A|---2---0---2---2---------------------------------------------------------------|
E|-------x---3---0---------------------------------------------------------------|

e|---0---3---0---0---------------------------------------------------------------|
B|---0---3---0---2---------------------------------------------------------------|
G|---1---0---1---2---------------------------------------------------------------|
D|---2---0---2---2---------------------------------------------------------------|
A|---2---2---2---0---------------------------------------------------------------|
E|---0---3---0---x---------------------------------------------------------------|

e|--2---3---0-------------------------------------------------------------------|
B|--5---3---2-------------------------------------------------------------------|
G|--4---0---2-------------------------------------------------------------------|
D|--4---0---2-------------------------------------------------------------------|
A|--2---2---0-------------------------------------------------------------------|
E|------3---x-------------------------------------------------------------------|

e termina aí
e|--0-------------------------------------------------------------------------|
B|--0-------------------------------------------------------------------------|
G|--1-------------------------------------------------------------------------|
D|--2-------------------------------------------------------------------------|
A|--2-------------------------------------------------------------------------|
E|--0-------------------------------------------------------------------------|


aÊ a versão ao vivo (que eu prefiro) muito bom e fácil pessoal essa verão esta perfct
00:00 / 00:00
Outros vídeos desta música
Repetir
Outros vídeos desta música
Compositor não encontrado.
Colaboração e revisão:
  • Ícaro Schmitz
2.676 exibições
    • ½ Tom
    • A
    • Bb
    • B
    • C
    • Db
    • D
    • Eb
    • E
    • F
    • F#
    • G
    • Ab
  • Adicionar à lista

    0 comentários

    Ver todos os comentários

    Conseguiu tocar?

    0 Tocaram 0 Ainda não

    Grave um vídeo tocando The Fever e nos envie!

    00:00 / 00:00

    Cifra Club Pro

    Aproveite o Cifra Club com benefícios exclusivos e sem anúncios
    Cifra Club Pro
    Aproveite o Cifra Club com benefícios exclusivos e sem anúncios
    OK