Electric Blue

Arcade Fire

Composição de: Jeremy Gara / Regine Chassagne / Richard R Parry / Tim Kingsbury / William Butler / Win Butler
tom: C
[Intro]

  F
E|------------8-5-8-5-8-5-8-5-8-5-| ---------------8-5-8-5-8-5-8-5-8-5-|
B|--------------------------------| -----------------------------------|
G|--------------------------------| -----------------------------------|
D|--------------------------------| -----------------------------------|
A|--------------------------------| -----------------------------------|
E|--------------------------------| -----------------------------------|

  Em                               Am       Am/B Am/C
E|------------7-5-7-5-7-5-7-5-7-5-| ---------------8-5-8-5-8-5-8-5-8-5-|
B|--------------------------------| -----------------------------------|
G|--------------------------------| -----------------------------------|
D|--------------------------------| -----------------------------------|
A|--------------------------------| -----------------------------------|
E|--------------------------------| -----------------------------------|

  F
E|------------8-5-8-5-8-5-8-5-8-5-| ---------------8-5-8-5-8-5-8-5-8-5-|
B|--------------------------------| -----------------------------------|
G|--------------------------------| -----------------------------------|
D|--------------------------------| -----------------------------------|
A|--------------------------------| -----------------------------------|
E|--------------------------------| -----------------------------------|
 |
E|------------10--10--10--10----10| ---------------10--10--10--10----8-|
B|--------------13--13--13----10--| -----------------13--13--13----10--|
G|--------------------------------| -----------------------------------|
D|--------------------------------| -----------------------------------|
A|--------------------------------| -----------------------------------|
E|--------------------------------| -----------------------------------|

  Em                               Am       Am/B Am/C
E|------------7-5-7-5-7-5-7-5-7-5-| ---------------8-5-8-5-8-5-8-5-8-5-|
B|--------------------------------| -----------------------------------|
G|--------------------------------| -----------------------------------|
D|--------------------------------| -----------------------------------|
A|--------------------------------| -----------------------------------|
E|--------------------------------| -----------------------------------|
 |
E|------------10--10--10--10----10| ---------------10--10--10--10----8-|
B|--------------13--13--13----10--| -----------------13--13--13----10--|
G|--------------------------------| -----------------------------------|
D|--------------------------------| -----------------------------------|
A|--------------------------------| -----------------------------------|
E|--------------------------------| -----------------------------------|

F
Summer's gone and so are you
Em                      Am
See the sky electrocute
F
A thousand boys that look like you
Em                          Am
Cover my eyes electric blue

      F
Now I can't get my head around it
            Em
I thought I found it
           Am
But I found out I don't know shit
      F
Now I can't get my head around it
            Em
I thought I found it
            Am
But I found out

       F
e|7-8-|  ------7-8-----7-8-7-8-7-8---7-8-|  ----10--8-----7-8-7-8-7-8---7-8-|
B|----| -----------------------------------|--------------------------------|
G|----| -----------------------------------|--------------------------------|
D|----| -----------------------------------|--------------------------------|
A|----| -----------------------------------|--------------------------------|
E|----| -----------------------------------|--------------------------------|

  Em                               Am
E|----7---------7-8-7-8-7-8---7-8-| -------10--8-----7-8-7-8-7-8---7-8-|
B|--------8-----------------------| -----------------------------------|
G|--------------------------------| -----------------------------------|
D|--------------------------------| -----------------------------------|
A|--------------------------------| -----------------------------------|
E|--------------------------------| -----------------------------------|


                  F
Na-na-na-na-na-na-na

Na-na-na-na-na-na-na
                  Em
Na-na-na-na-na-na-na
                  Am
Na-na-na-na-na-na-na
                  F
Na-na-na-na-na-na-na

Na-na-na-na-na-na-na
                  Em
Na-na-na-na-na-na-na
                  Am
Na-na-na-na-na-na-na

( F )
( Em  Am Am/B Am/C )

F
A thousand girls that look like me
Em                          Am
Staring out at the open sea
  F
Repeat the words until they're true
Em                          Am
Cover my eyes electric blue

      F
Now I can't get my head around it
            Em
I thought I found it
           Am
But I found out I don't know shit
      F
Now I can't get my head around it
            Em
I thought I found it
            Am
But I found out

                  F
Na-na-na-na-na-na-na

Na-na-na-na-na-na-na
                  Em
Na-na-na-na-na-na-na
                  Am
Na-na-na-na-na-na-na
                  F
Na-na-na-na-na-na-na

Na-na-na-na-na-na-na
                  Em
Na-na-na-na-na-na-na
                  Am
Na-na-na-na-na-na-na

F
Now you've got me so confused
       Em                              Am
'Cause I don't know how to sing your blues
F
Jesus Christ, what could I do?
Em                              Am
I don't know how to sing your blues

( F )
( Em  Am )

      F
Now I can't get my head around it
            Em                    Am
I thought I found it, but I found out

                F
Cover my eyes electric blue

Cover my eyes electric blue
                     Em
Every single night I dream about you
                     Am
Every single night I dream about you
                F
Cover my eyes electric blue

Cover my eyes electric blue
                     Em
Every single night I dream about you
                     Am
Every single night I dream about you
                F
Cover my eyes electric blue

Cover my eyes electric blue
                     Em
Every single night I dream about you
                     Am
Every single night I dream about you
                F
Cover my eyes electric blue

Cover my eyes electric blue
                     Em
Every single night I dream about you
                     Am
Every single night I dream about you
                F
Cover my eyes electric blue

Cover my eyes electric blue
                     Em
Every single night I dream about you
                     Am
Every single night I dream about you
                F
Cover my eyes electric blue

Cover my eyes electric blue
                     Em
Every single night I dream about you
                     Am
Every single night I dream about you
                F
Cover my eyes electric blue

Cover my eyes electric blue
                     Em
Every single night I dream about you
                     Am
Every single night I dream about you
Página 1 / 1

Letras e título
Acordes e artista

resetar configurações
OK