Neighborhood 4 7 Kettles

Arcade Fire

Composição de: Arcade Fire
tom: D
tabbed by : oneshotnothing


standard tuning


INTRO

e-|----------------------------------------|
b-|----------------------------------------|
g-|--------0----0----0---------0----0----0-|
d-|----------12---12-------------12---12---|    X2
a-|---9-10----------------9-10-------------|
E-|10------------------10------------------|


VERSE

e-|-------------------------------------------------------------|
b-|-------------------------------------------------------------|
g-|---------0----0----0----0----0----0----0---------0----0----0-|
d-|-----------12---12---12--------12---12-------------12---12---|
a-|10-12-14------------------14------------13-12-10-------------|
E-|-------------------------------------------------------------|

e-|------------------------------------------------------------------|
b-|------------------------------------------------------------------|
g-|--------0----0----0----0----0----0----0----0----0----0----0-------|
d-|----------12---12---12--------12---12---12--------12---12---------|
a-|---9-10------------------12------------------12-------------12-11-|
E-|10----------------------------------------------------------------|

e-|-----------------------------------|    |-----|
b-|-----------------------------------|    |-----|
g-|---0----0----0---------0----0----0-|    |---0-|
d-|-----12---12-------------12---12---|    |12---|
a-|10----------------9-10-------------|    |-----|
E-|---------------10------------------|    |-----|
                                            play this when going into the chorus


CHORUS

e-|----------------------------------------------------------------|
b-|----------------------------------------------------------------|
g-|----------------------------------------------------------------|
d-|----9---9---9-------9---9---8-7-----5---5---7-------5---5---5---|
a-|--7---7---7---7---7---7---7-------5---5---5---5---5---5---5---5-|
E-|8---------------8---------------3---------------3---------------|

e-|----------------------------------------------------------------|
b-|----------------------------------------------------------------|
g-|----------------------------------------------------------------|
d-|----9---9---9-------9---9---8-7-----5---5---7-------5-------5---|
a-|--7---7---7---7---7---7---7-------5---5---5---5---5---5---5---5-|
E-|8---------------8---------------3---------------3-------2-------|

e-|----------------------------------------------------------------|
b-|----------------------------------------------------------------|
g-|----7---7---7-------7---7---7-------7---7---7-------7---7---7---|
d-|------6---6---6-------6---6---6---7---7---7---5---7---7---7---7-|
a-|--7---------------7-------------0---------------0---------------|
E-|0---------------0-----------------------------------------------|


ENDING

e-|----------------------------------------------------------|
b-|----------------------------------------------------------|
g-|----0----0----0----0-----0----0----0----0-----0----0----0-|
d-|------12---12---12---------12--------12---------12---12---|
a-|10-------------------14---------14--------10--------------|
E-|----------------------------------------------------------|

e-|-----------------------------------------------------------------|
b-|-----------------------------------------------------------------|
g-|--------0----0----0----0----0----0----0----0----0----0----0----0-|
d-|----------12---12---12---12---12---12---12--------12--------12---|
a-|---9-10--------------------------------------14--------14--------|
E-|10---------------------------------------------------------------|

e-|----------------------------------------------------------------------|
b-|----------------------------------------------------------------------|
g-|---0----0----0----0----0----0----0----0----0----0----0----0----0----0-|
d-|-----12--------12---12---12--------12---12---12---12---12---12---12---|
a-|10--------12------------------12--------------------------------------|
E-|----------------------------------------------------------------------|

e-|------------------------------------------------------------|
b-|------------------------------------------------------------|
g-|---0----0----0----0----0----0----0----0----0----0----0----0-|
d-|-----12--------12--------12---12---12--------12--------12---|
a-|15--------15--------10------------------15--------15--------|
E-|------------------------------------------------------------|

e-|---------------------------------------------------------------------------|
b-|---------------------------------------------------------------------------|
g-|---0----0----0----0----0----0----0---------0----0----0---------0----0----0-|
d-|-----12--------12--------12---12-------------12---12-------------12---12---|
a-|10--------12--------10----------------9-10----------------9-10-------------|
E-|-----------------------------------10------------------10------------------|

e-|----------------------------|
b-|----------------------------|
g-|--------0----0----0---------|
d-|----------12---12-----------|
a-|---9-10----------------9-10-|
E-|10------------------10------|
Página 1 / 1

Letras e título
Acordes e artista

resetar configurações
OK