Rebellion (Lies)

Arcade Fire

Composição de: Arcade Fire
tom: Db
Tabbed by: Matty C
Email: H*

Tuning: Standard EADGBE

Intro:
Bb, D#maj, Bb, Gm

Verse: Same as Intro

Chorus:
Bb, D#maj, Bb, D#maj

*Key Change*
Bbm, F#maj, C#maj, G#maj

I've tabbed out the incredible violin solo at the end of the song.
The solo starts at 3:50

e|----------------8~-9~----9~-8~---------------------------------------------------------|
B|-11~-11~-9~-11~-------9~-------11~-9~-7~-6~----11~-9~-7~-------------------------------|
G|--------------------------------------------6~-----------6~-8~/10~h11~p10~-8~-6~-5~----|
D|---------------------------------------------------------------------------------------|
A|---------------------------------------------------------------------------------------|
E|---------------------------------------------------------------------------------------|
    
Play that riff three times. On the last time, an A# is added so it looks like:

e|----------------8~-9~----9~-8~---------------------------------------------------------|
B|-11~-11~-9~-11~-------9~-------11~-9~-7~-6~----11~-9~-7~-------------------------------|
G|--------------------------------------------6~-----------6~-8~/10~h11~p10~-8~-6~-5~-3~-|
D|---------------------------------------------------------------------------------------|
A|---------------------------------------------------------------------------------------|
E|---------------------------------------------------------------------------------------|

*Chords Used*

Bb    688766
D#maj x68886
Gm    355333 or x 10 12 12 11 10
Bbm   688666
F#maj 244322
C#maj x46664
G#maj 466544


Questions, comments, compliments, or corrections go to H*

To: Dad

Matty C 
Página 1 / 1

Letras e título
Acordes e artista

resetar configurações
OK