Cifra Club

Aprenda

You Already Know

Arcade Fire

Tab de baixo: Principal
Intro:
G|---------------------------------------------------------------------------
D|---------------------------------------------------------------------------
A|-----4--------------------4--------------------4---5-4-----5-4-----7-7-7-7-
E|-5-7---5-2-0-2-0-2--0-5-7---5-2-0-2-0-2--0-5-7---5-----7-5-----7-5---------

G|-------------------------------------------------------------------------
D|-------------------------------------------------------------------------
A|-5-5-4--------------------4------------------4---5-4-----5-4-----7-7-7-7-
E|-------7-5-2-0-2-0-2--5-7---5-2-0-2-0-2--5-7---5-----7-5-----7-5---------

Verse 1:
G|-------------------------------------------------------------------------
D|------------------------------------------------------------------------- (x2)
A|-5-5-4--------------------4------------------4---5-4-----5-4-----7-7-7-7-
E|-------7-5-2-0-2-0-2--5-7---5-2-0-2-0-2--5-7---5-----7-5-----7-5---------

Chorus:
G|---------------------------------------------------------------------
D|---------------------------------------------------------------------
A|-9-9-9-9-9-9-7-7-5-4-5-4-5-4-5-4-2-0-2-0-2-0-2-0-7-7-7-7-7-7-7-7-----
E|---------------------------------------------------------------------

Verse 1:

G|---------------------------------------------------------------------------
D|---------------------------------------------------------------------------
A|----------------------------------------------------------5h7--------------
E|--0-5--7--9--7--0-2-0-2-0-2----------------0-10--9--7--5-------------------

G|---------------------------------------------------------------------------
D|---------------------------------------------------------------------------
A|-----------------------------------------------------------------------5h7-
E|--9--7--5--0-2-0-2-------0-2-0-2----------5--7-----10--9--7--5--10--9------

G|---------------------------------------------------------------------------
D|---------------------------------------------------------------------------
A|---------------------------------------------------------------------------
E|--10-9---0-2-0-2----5--7--9---0-2-0-2----5--7--9--7--10----10--9--7--5-----

G|---------------------------------------------------------------------------
D|---------------------------------------------------------------------------
A|--7h9-9-9-9-9-9-9-7-7------------------------------------------------------
E|---------------------------------------------------------------------------

(Chorus)

Outro:
G|-----------------------------------------------------------------------
D|-----------------------------------------------------------------------
A|-5----55-4----------------------77-5---7-7-9-9-11-12------------------- 
E|--7-5-----7---7-2-2-77-5-2-----------7---------------------------------
Compositor não encontrado.
Colaboração e revisão:
  • Lucas Idalino
103 exibições

0 comentários

Ver todos os comentários

Conseguiu tocar?

0 Tocaram 0 Ainda não

Grave um vídeo tocando You Already Know e nos envie!

00:00 / 00:00
Outros vídeos desta música
Repetir Qualidade Automático
Outros vídeos desta música
00:00 / 00:00
Automático

Cifra Club Pro

Aproveite o Cifra Club com benefícios exclusivos e sem anúncios
Cifra Club Pro
Aproveite o Cifra Club com benefícios exclusivos e sem anúncios
OK