Cifra Club

Aprenda

Chaotica

The Bambi Molesters

Cifra: Principal (violão e guitarra)
Tom: B
Intro:  Bbm

|-1-------------|
|---------2-----|
|-----------3---|
|---------------|
|---------------|
|---------------|

Intro
|-6*--------------------------------------------------|
|-6*--------------------------------------------------|
|-6*--------------------------------------------------|
|-8*--------------------------------------------------| x2
|-8*------------------------------6/8---8\------------|
|-6*------------------------------4/6---6\------------|

Verse #1
|----------------------------------------6*-----------|
|----------------------------------------6*-----------|
|----------------------------------------6*-----------|
|------------------------11---10---------8*-----------|
|-----8---------8-8/11-------------11\---8*-----------|
|-6--------------------------------------6*-----------|

|-----------------------------------------------------|
|-----------------------------------------------------|
|-----------------------------------------------------|
|-----------------------------------------------------|
|---8--------------------/6---6---4-4/6---------------|
|-6---------------------------------------6\4h6-------|

|-----------------------------------------------------|
|-------------------------------------11*-------------|
|---------------------------------8---10*-------------|
|-----------------------11---10-----------------------|
|---8----------8-8/11---------------------------------|
|-6---------------------------------------------------|

|-----------------------------------------------------|
|-----------------------------------------------------|
|-----------------------------------------------------|
|-----------------------------------------------------|
|---8--------------------/6---6---4-4/6---------------|
|-6---------------------------------------6\4h6-------|

Bridge #1
|--------------------------------------------------------------------|
|--------------------------------------------------------------------|
|--------------------------------------------------------------------|
|--------------------------------------------------------------------|
|--------------------------------------------------------------------|
|-14\-2-2-2-2-2-2-2-2-2-2-2-2-4-4-2-2-2-2-2-2-5-5-5-5-5-5-5-5-6------|

|--------------------------------------------------------------------|
|--------------------------------------------------------------------|
|--------------------------------------------------------------------|
|--------------------------------------------------------------------|
|--------------------------------------------------------------------|
|-14\-2-2-2-2-2-2-2-2-2-2-2-2-2-2-2-----------2---4---2---1---1-1/13-|

Verse #2
|--------------------------------------------------------------------|
|--------------------------------------------------------------------|
|------/18---------------------18--17-----15-------------------------|
|-15-----------------------------------15----------------------------|
|--------------------------------------------------------------------|
|--------------------------------------------------------------------|

|--------------------------------------------------------------------|
|--------------------------------------------------------------------|
|------/18---------------------18--17-----15-------------------------|
|-15-----------------------------------15----------------------------|
|--------------------------------------------------------------------|
|--------------------------------------------------------------------|

|--------------------------------------------------------------------|
|--------------------------------------------------------------------|
|--------------------------------------------------------------------|
|--------------------------------------------------------------------|
|-8---4------8------------------4---4---6-8-----4--------------------|
|--------6----------------------------------------6\-----------------|

|--------------------------------------------------------------------|
|--------------------------------------------------------------------|
|--------------------------------------------------------------------|
|--------------------------------------------------------------------|
|-8---4------8------------------4---4---3-1--------------------------|
|--------6-----------------------------------------------------------|

Verse #1
|----------------------------------------6*----------|
|----------------------------------------6*----------|
|----------------------------------------6*----------|
|------------------------11---10---------8*----------|
|-----8---------8-8/11-------------11\---8*----------|
|-6--------------------------------------6*----------|

|----------------------------------------------------|
|----------------------------------------------------|
|----------------------------------------------------|
|----------------------------------------------------|
|-----8------------------/6---6----4/6---------------|
|-6--------------------------------------6\4-6-------|

|----------------------------------------------------|
|-------------------------------------11*------------|
|---------------------------------8---10*------------|
|-----------------------11---10----------------------|
|---8----------8-8/11--------------------------------|
|-6--------------------------------------------------|

|----------------------------------------------------|
|----------------------------------------------------|
|----------------------------------------------------|
|----------------------------------------------------|
|---8--------------------/6---6----4/6---------------|
|-6--------------------------------------6\4-6-------|

Bridge #1
|-----------------------------------------------------------------6--|
|-----------------------------------------------------------------6--|
|-----------------------------------------------------------------6--|
|-----------------------------------------------------------------8--|
|-----------------------------------------------------------------8--|
|-14\-2---2---2-2-2-2-2-2-2-2-4---2---2---2-2-2-2-2-2-2-2-5---6---6--|

|--------------------------------------------------------------------|
|--------------------------------------------------------------------|
|--------------------------------------------------------------------|
|--------------------------------------------------------------------|
|--------------------------------------------------------------------|
|-14\-2---2---2-2-2-2-2-2-2-2-4---2-----------2---4---2---1---1-1/13-|

Verse #2
|---------------------------------------------------------18\--------|
|--------------------------------------------------------------------|
|------/18--------------------/18--17-/18-15-------------------------|
|-15-----------------------------------------------------------------|
|--------------------------------------------------------------------|
|--------------------------------------------------------------------|

|--------------------------------------------------------------------|
|--------------------------------------------------------------------|
|------/18--------------------/18--17-/18-15-------------------------|
|-15-----------------------------------------------------------------|
|--------------------------------------------------------------------|
|--------------------------------------------------------------------|

|--------------------------------------------------------------------|
|--------------------------------------------------------------------|
|--------------------------------------------------------------------|
|--------------------------------------------------------------------|
|-8---4------8------------------4---4---6-8-----4--------------------|
|--------6----------------------------------------6-------6\---------|

|--------------------------------------------------------------------|
|--------------------------------------------------------------------|
|--------------------------------------------------------------------|
|--------------------------------------------------------------------|
|-8---4------8------------------4---4---3----------------------------|
|--------6--------------------------------6--------------------------|

Bridge #3
|------6*------------------------------------------------------------|
|------6*------------------------------------------------------------|
|------6*------------------------------------------------------------|
|------8*------------------------------------------------------------|
|------8*------------------------------------------------------------|
|-4----6*------------------------------------------------------------|

|-18-----------------------------------------------------------------|
|------18------------------------------------------------------------|
|--------------------------------------------------------------------|
|--------------------------------------------------------------------|
|--------------------------------------------------------------------|
|--------------------------------------------------------------------|

Verse #1
|----------------------------------------6*-----------|
|----------------------------------------6*-----------|
|----------------------------------------6*-----------|
|------------------------11---10---------8*-----------|
|---------------8-8/11-------------11\---8*-----------|
|----------------------------------------6*-----------|

|-----------------------------------------------------|
|-----------------------------------------------------|
|-----------------------------------------------------|
|-----------------------------------------------------|
|---8--------------------/6---6---4-4/6---------------|
|-6---------------------------------------6\4h6-------|

|-----------------------------------------------------|
|-------------------------------------11*-------------|
|---------------------------------8---10*-------------|
|-----------------------11---10-----------------------|
|---8----------8-8/11---------------------------------|
|-6---------------------------------------------------|

|-----------------------------------------------------|
|-----------------------------------------------------|
|-----------------------------------------------------|
|-----------------------------------------------------|
|---8--------------------/6---6---4-4/6---------------|
|-6---------------------------------------6\4h6-------|

Outro
|-----------------------------------------------------|
|-----------------------------------------------------|
|-----------------------------------------------------|
|-----------------------------------------------------|
|-6---8---------------6---8---------------------------|
|-4---6---------------4---6---------------------------|
(tocar de forma leve)


Legenda da tablatura:

/ or \          slide up or down
  h             hammer on
  p             pull off
  *             tremolo
Composição de Dalibor Pavicic
Colaboração e revisão:
  • Marco Rotta
583 exibições
    • ½ Tom
    • A
    • Bb
    • B
    • C
    • Db
    • D
    • Eb
    • E
    • F
    • F#
    • G
    • Ab
  • Adicionar à lista

    0 comentários

    Mostrar mais comentários

    Conseguiu tocar?

    0 Tocaram 0 Ainda não

    Grave um vídeo tocando Chaotica e mande pra gente!

    00:00 / 00:00
    outros vídeos desta música
    repetir qualidade Automático
    Outros vídeos desta música
    00:00 / 00:00
    Automático

    Cifra Club Pro

    Aproveite o Cifra Club com benefícios exclusivos e sem anúncios
    Cifra Club Pro
    Aproveite o Cifra Club com benefícios exclusivos e sem anúncios
    OK