Cifra Club

Aprenda

Malaguena

The Bambi Molesters

Cifra: Principal (violão e guitarra)
Tom: C
OBS.: a) Esta música é tocada com outros instrumentos, como trombone ou trompete (talvez um saxofone).
      Eu coloquei aqui apenas a guitarra. b) Nesta transcrição, quando eu digo “2 vezes” é só tocar a
      tablatura, pois os RIFFs já estão repetidos.




Base: E F G F

Começa-se a INTRO com a guitarra:

    E                       F                                              E            E
e|-----------------------------------------------------------------------------------------|
B|--0--0--0--3--3--6--5-----1---1-1---0---0-1----------0-1-0-3-1-0---------0------------0--|
G|--1-----------------------2-----------2--------2-1-2-------------2-------1------2-1-2-1--|
D|--2-----------------------3----------------------------------------------2------------2--|
A|--2-----------------------3----------------------------------------------2------------2--|
E|-----------------------------------------------------------------------------------------|

    E                       F                                              E            E
e|-----------------------------------------------------------------------------------------|
B|--0--0--0--3--3--6--5-----1---1-1---0---0-1----------0-1-0-3-1-0---------0------------0--|
G|--1-----------------------2-----------2--------2-1-2-------------2-------1------2-1-2-1--|
D|--2-----------------------3----------------------------------------------2------------2--|
A|--2-----------------------3----------------------------------------------2------------2--|
E|-----------------------------------------------------------------------------------------|

Enquanto começa a percussão, toca-se:

    E
e|-----|
B|--0--|
G|--1--|  -> várias vezes (10x)
D|--2--|
A|--2--|
E|-----|

Após o último “E” ouve-se um grito (Ahhhhhhh...).

Então toca-se o VERSO (o mesmo RIFF do começo também 2 vezes, só que com TRËMOLO):

    E                       F                                              E            E
e|-----------------------------------------------------------------------------------------|
B|--0--0--0--3--3--6--5-----1---1-1---0---0-1----------0-1-0-3-1-0---------0------------0--|
G|--1-----------------------2-----------2--------2-1-2-------------2-------1------2-1-2-1--|
D|--2-----------------------3----------------------------------------------2------------2--|
A|--2-----------------------3----------------------------------------------2------------2--|
E|-----------------------------------------------------------------------------------------|

    E                       F                                              E            E
e|-----------------------------------------------------------------------------------------|
B|--0--0--0--3--3--6--5-----1---1-1---0---0-1----------0-1-0-3-1-0---------0------------0--|
G|--1-----------------------2-----------2--------2-1-2-------------2-------1------2-1-2-1--|
D|--2-----------------------3----------------------------------------------2------------2--|
A|--2-----------------------3----------------------------------------------2------------2--|
E|-----------------------------------------------------------------------------------------|

Agora inicia-se a PONTE duas vezes:

     E        F                E        F         G
e|-------------------------|-------------------------|
B|----0--0---3--1--0-------|----0--0---3--1--0-------|
G|---1--1-------------2-1--|---1--1-------------2-1--|
D|--2--2-------------------|--2--2-------------------|
A|-------------------------|-------------------------|
E|-------------------------|-------------------------|

Nesta parte, antes do seu solo agudo, o trompete toca um pequeno solo e, a guitarra toca a base:

    E    F  G   G  F  E    F
e|----------------------------|
B|--0----1--3---3--1--0----1--|
G|--1----2--4---4--2--1----2--|
D|--2----3--5---5--3--2----3--|
A|--2----3--5---5--3--2----3--|
E|----------------------------|

Então começa-se o solo agudo do trompete, enquanto isso, a guitarra toca a base algumas vezes:

    E    F    G  F  E    F
e|--------------------------|
B|--0----1----3--1--0----1--|
G|--1----2----4--2--1----2--|
D|--2----3----5--3--2----3--|
A|--2----3----5--3--2----3--|
E|--------------------------|

Ao final do solinho agudo, a guitarra toca:

    E    F    G  F  E    F
e|--------------------------|
B|--0----1----3--1--0----1--|
G|--1----2----4--2--1----2--|
D|--2----3----5--3--2----3--|
A|--2----3----5--3--2----3--|
E|--------------------------|

Agora, novamente o VERSO 2 vezes:

    E                       F                                              E            E
e|-----------------------------------------------------------------------------------------|
B|--0--0--0--3--3--6--5-----1---1-1---0---0-1----------0-1-0-3-1-0---------0------------0--|
G|--1-----------------------2-----------2--------2-1-2-------------2-------1------2-1-2-1--|
D|--2-----------------------3----------------------------------------------2------------2--|
A|--2-----------------------3----------------------------------------------2------------2--|
E|-----------------------------------------------------------------------------------------|

    E                       F                                              E            E
e|-----------------------------------------------------------------------------------------|
B|--0--0--0--3--3--6--5-----1---1-1---0---0-1----------0-1-0-3-1-0---------0------------0--|
G|--1-----------------------2-----------2--------2-1-2-------------2-------1------2-1-2-1--|
D|--2-----------------------3----------------------------------------------2------------2--|
A|--2-----------------------3----------------------------------------------2------------2--|
E|-----------------------------------------------------------------------------------------|

Aqui, novamente a PONTE 2 vezes:

     E        F                E        F         G
e|-------------------------|-------------------------|
B|----0--0---3--1--0-------|----0--0---3--1--0-------|
G|---1--1-------------2-1--|---1--1-------------2-1--|
D|--2--2-------------------|--2--2-------------------|
A|-------------------------|-------------------------|
E|-------------------------|-------------------------|

Nesta parte, novamente antes do solo agudo do trompete, ele toca um pequeno solo e a guitarra toca a base:

    E    F  G   G  F  E    F
e|----------------------------|
B|--0----1--3---3--1--0----1--|
G|--1----2--4---4--2--1----2--|
D|--2----3--5---5--3--2----3--|
A|--2----3--5---5--3--2----3--|
E|----------------------------|

Então começa-se o solo agudo do trompete. Enquanto isso, a guitarra toca a base algumas vezes:

    E    F    G  F  E    F
e|--------------------------|
B|--0----1----3--1--0----1--|
G|--1----2----4--2--1----2--|
D|--2----3----5--3--2----3--|
A|--2----3----5--3--2----3--|
E|--------------------------|

Ao final do solinho agudo, a guitarra toca:

    E    F    G  F  E    F     G F E
e|------------------------------------|
B|--0----1----3--1--0----1-----3-1-0--|
G|--1----2----4--2--1----2-----4-2-1--|
D|--2----3----5--3--2----3-----5-3-2--|
A|--2----3----5--3--2----3-----5-3-2--|
E|------------------------------------|

No finalzinho, o trompete encerra a música.
Composição de Ernesto Lecuona
Colaboração e revisão:
  • Pedro Sant'Anna
14.933 exibições
    • ½ Tom
    • A
    • Bb
    • B
    • C
    • Db
    • D
    • Eb
    • E
    • F
    • F#
    • G
    • Ab
  • Adicionar à lista

    0 comentários

    Mostrar mais comentários

    Conseguiu tocar?

    2 Tocaram 0 Ainda não

    Grave um vídeo tocando Malaguena e mande pra gente!

    00:00 / 00:00
    outros vídeos desta música
    repetir qualidade Automático
    Outros vídeos desta música
    00:00 / 00:00
    Automático

    Cifra Club Pro

    Aproveite o Cifra Club com benefícios exclusivos e sem anúncios
    Cifra Club Pro
    Aproveite o Cifra Club com benefícios exclusivos e sem anúncios
    OK