Cifra Club

Aprenda

A Hard Day's Night

The Beatles

Tab de baixo: Principal
Esta musica é extremamente fácil, a unica dica a se dar é ouvir a musica varias vezes e pegar o tempo dela. Vale lembrar que é uma musica agitada, então a maioria das notas são tocadas bem rapidamente.

INTRO
G------------------------------------
D------------------------------------
A------------------------------------
E-3~~~-------------------------------

VERSE/CHORUS 
it's been a hard day's night.. 
G----------------------------------------
D----------------------------------------
A-------33-------------------------------
E-333333--333333-11111-3333--------------


VERSE VARIATION (but when I get home to you..)
G------------------------------------
D------------------------------------
A--33333333-55555555---33------------
E--------------------33--3~----------

Durante o solo continue tocando
VERSE/CHORUS 
G----------------------------------------
D----------------------------------------
A-------33-------------------------------
E-333333--333333-11111-3333--------------

VERSE VARIATION
G------------------------------------
D------------------------------------
A--33333333-55555555---33------------
E--------------------33--3~----------

e volta em 

VERSE/CHORUS 
G----------------------------------------
D----------------------------------------
A-------33-------------------------------
E-333333--333333-11111-3333--------------

Ultima Parte (yeah i fell allright...)
G----------------------------------------------------
D----------------------------------------------------
A-------33-------------33-------------33-------------
E-333333--333333--33333--333333--33333--33333--------


BRIDGE (when I'm home, everything seems to be right..)
G-----------------------------------------------------------
D-----------------------------------------------------------
A-----------------------------------------------------------
E-77777777-00000000-77777777-00000000-55555555-00000000-3~--


Obrigado e boas musicas  \m/
Composição de John Lennon
Colaboração e revisão:
  • Gabriel Montes
  • Edson Kuchnir
18.693 exibições

0 comentários

Mostrar mais comentários

Conseguiu tocar?

7 Tocaram 0 Ainda não

Grave um vídeo tocando A Hard Day's Night e mande pra gente!

00:00 / 00:00
outros vídeos desta música
repetir qualidade Automático
Outros vídeos desta música
00:00 / 00:00
Automático

Cifra Club Pro

Aproveite o Cifra Club com benefícios exclusivos e sem anúncios
7 dias grátis
Cifra Club Pro
Aproveite o Cifra Club com benefícios exclusivos e sem anúncios
7 dias grátis
OK