Cifra Club

All My Loving

The Beatles

Cifra: Principal
exibições 1.004.309
Tom: E
           F#m           B7
Close your eyes and I'll kiss you
   E          C#m
Tomorrow I'll miss you
  A           F#m       D    B7
Remember I'll always be true
         F#m         B7
And then while I'm away
           E          C#m
I'll write home every day
         A           B7        E
And I'll send all my loving to you
        F#m           B7
I'll pretend that I'm kissing
    E         C#m
the lips I am missing
    A            F#m              D    B7
And hope that my dreams will come true
         F#m         B7
And then while I'm away
           E          C#m
I'll write home every day
         A           B7        E
And I'll send all my loving to you
       C#m    C#m7+           E*
All my loving I will send to you
       C#m     C#m7+            E*
All my loving, darling I'll be true

Solo base: A A E E F#m B7 E E

E|------------------5-------9--7--5--4-----4---|
B|----------------------7---------------5------|
G|------------------6-------9--8--6--4-----4---|
D|----------------------7---------------6------|
A|-2----------0--------------------------------|
E|----0--2-4-----------------------------------|

E|--7--5--4--2----2----9--------9---0-------------------------------------|
B|-------------2-----------10-----------0--------0--------0-------0-------|
G|--9--8--4--2----2----11-------11--1------0h1-----0h1-------0h1----------|
D|-------------4-----------12-----------------------------------------2---|
A|--------------------------------------------------------------------2---|
E|------------------------------------------------------------------------|

           F#m           B7
Close your eyes and I'll kiss you
   E          C#m
Tomorrow I'll miss you
  A           F#m       D    B7
Remember I'll always be true

         F#m         B7
And then while I'm away
    E         C#m
I'll write home every day
         A           B7        E
And I'll send all my loving to you

       C#m    C#m7+           E*
All my loving, I will send to you
       C#m     C#m7+            E*
All my loving, darling I'll be true
       C#m    C#m7+          E
All my loving......, all my loving
       C#m    C#m7+        E     E
All my loving, I will send to you

Baixo:
G|--------------------------------------------------------------|
D|-4-2-1-----------------------------2---4----------------------|
A|-------4-2-0---------2-3-4---4---4---4----4--5---2-0----------|
E|-------------4-2-0-4-------5---5---------------------4-2-...--|
Acordes para:
    Composição: John Lennon / Paul McCartneyColaboração e revisão:

    0 comentários

      mostrar mais comentários

      Conseguiu tocar?

      176tocaram0ainda não

      Grave um vídeo tocando All My Loving e mande pra gente!

      00:00 / 00:00
      outros vídeos desta música
      repetirqualidadeautomática
      Outro vídeos desta música
        00:00 / 00:00
        automática
        OK