Cifra Club

Aprenda

Baby, You're a Rich Man

The Beatles

Tab de baixo: Principal
(intro 2x)
G|------------------------------------------------------------|---------------|
D|------------------------------------------------------------|---------------|
A|--10---10/10/10--10/10/10--10/10/10/----------/10--10/10/10-|---------------|
E|-------------------------------------/3--333/---------------|-/3-333-3/5-/3-|

(verso)   
G|------------------------------------------------------------|
D|------------------------------------------------------------|
A|----------------------------------------------------3-------|
E|----3-333-333-333-333-333-333-333-3/1-1-1-1/3-3-3-3---------|

(refrão)  Baby your a rich man, Baby your a rich man.....
G|---------------------------|-----------------------------|
D|---------------------------|-----2--5--2------2--5--2----|
A|-----2--5--2------2--5--2--|--3------------3-------------|
E|--3------------3-----------|-----------------------------|

         Baby your a rich man         too...
G|---------------------------|---------------5--4--2--0----|
D|---------------------------|-----2--5--2-----------------|
A|-----2--5--2------2--5--2--|--3--------------------------|
E|--3------------3-----------|-----------------------------|

         You keep all your money...
G|--------------------------------------------|
D|--------------------------------------------|
A|--2-2--2-2---3-3--3-3------------3-3--3-3---|
E|-----------------------3-3--3-3-------------|

Baby your a rich man, Baby your a rich man.....
G|---------------------------|-----------------------------|
D|---------------------------|-----2--5--2------2--5--2----|
A|-----2--5--2------2--5--2--|--3------------3-------------|
E|--3------------3-----------|-----------------------------|

Baby your a rich man, Baby your a rich man too.....
G|---------------------------|--------|
D|---------------------------|--------|
A|-----2--5--2------2--5--2--|----3---|
E|--3------------3-----------|--------|
Composição de John Lennon / Paul McCartney
Colaboração e revisão:
  • Lucas Lago
589 exibições

0 comentários

Ver todos os comentários

Conseguiu tocar?

0 Tocaram 0 Ainda não

Grave um vídeo tocando Baby, You're a Rich Man e nos envie!

00:00 / 00:00
Outros vídeos desta música
Repetir Qualidade Automático
Outros vídeos desta música
00:00 / 00:00
Automático

Cifra Club Pro

Aproveite o Cifra Club com benefícios exclusivos e sem anúncios
Cifra Club Pro
Aproveite o Cifra Club com benefícios exclusivos e sem anúncios
OK