Cifra Club

Aprenda

Blackbird

The Beatles

Cifra: Versão 7 (violão e guitarra)
Tom: G
Intro:
E|-----------------------------------------------------|
B|--0-----1-----3---12----12---12----12----12---12-----|
G|-----0-----0---------0----------0-----0----------0---|
D|----------------0----0----------------0--------------|
A|--------0-----2---10------10-------10------10--------|
E|--3--------------------------------------------------|

Verso:
(Parte 1)
E|----------------------------------------------------------3-------5-----|
B|--0-----1-----3---12----12---12----12----12---12-----5--------7---------|
G|-----0-----0---------0----------0-----0----------0-----0----0---0----0--|
D|----------------0----0----------------0---------------------------------|
A|--------0-----2---10------10-------10------10--------3----4---5---6-----|
E|--3---------------------------------------------------------------------|
    Blackbird singing in the dead of night,
                                               Take these broken wings and learn to fly.

(Parte 2)
E|------------------------------------3--------------------------------------|
B|--8----8----8----8---8----8----7---------5---5----5----4-----4---4---------|
G|----0---------0----0---------0---0----0----0---------0----0---------0------|
D|----0--------------0-----------------------0--------------0----------------|
A|--7------7-------6------6------5----4----3-----3-------3-------3-----------|
E|---------------------------------------------------------------------------|
                             All your life,

(Parte 3)
E|--------------------------------------------------------------------------|
B|--3---3----3-----2-----2----2-----1-----1-----1----0-----0-----0----------|
G|----0---------0-----0---------0------0----------0-----0-----------0-------|
D|----0---------------0-------------0--0----0-----------0-------------------|
A|--2-----2--------0-------0------------------------------------------------|
E|---------------------------------------------------3--------3-------------|
   You were only waiting for this moment to arise.

(Parte 4)
E|--------------------------------------------------------------------------|
B|--5----3-----2-----2----2----1----1---1----0-----0-----0------------------|
G|----0-----0-----0---------0-----0-------0-----0-----------0---------------|
D|----------------0------------0--0---0---------0---------------------------|
A|--3----2-----0-------0----------------------------------------------------|
E|-------------------------------------------3--------3---------------------|
n the dead of night,
Take these sunken eyes and learn to see.
Parte 2
All your life,
Parte 3
You were only waiting for this moment to be free.

Refrão:

(Parte 1)
E|--------------------------------------------------------------------------|
B|--10----8-----6-----5-----3----3----3-----5-----5----5--------------------|
G|-----0-----0-----0-----0-----0---------0-----0----------0-----------------|
D|-----------------------------0---------------0----------------------------|
A|--8-----7-----5-----3-----1------1--------3-------3-----------------------|
E|--------------------------------------------------------------------------|
Black   -   bird,   fly.

(Parte 2)
E|---------------------------------------------------------------------------0-|
B|--10----8-----6-----5-----3----3----3-----2-----2----2------1----1----1------|
G|-----0-----0-----0-----0-----0---------0-----0----------0------0---------0---|
D|-----------------------------0---------------0--------------0--0---0---------|
A|--8-----7-----5-----3-----1------1--------0-------0--------------------------|
E|---------------------------------------------------------------------------3-|
Black  -   bird,   fly...
                                      Into the light of a dark, black night.

Refrão:
(Parte 1)
Black   -   bird,   fly.
(Parte 2)
Black  -   bird,   fly...
Into the light of a dark, black night.

Ponte:
(Parte 1)
E|----------------------------------------------------------------------------|
B|--0-----1-----3----12----12----12----12----12----12---12----12----12--------|
G|-----0-----0----0-----0-----------0------0----------0----0-------------0----|   (4x)
D|----------------------0------------------0---------------0------------------|
A|--------0-----2----10-------10-------10-------10------10-------10-----------|
E|--3-------------------------------------------------------------------------|

(Parte 2)
E|----------------------------------------------------------------------------|
B|--12----12-----12-----12-----12------12------12-------12/-------------------|
G|-----0------------0-------0------0-------0----------------------------------|
D|-----0--------------------0------0-------0----------------------------------|
A|--10-------10---------10-----10------10------10-------10/-------------------|
E|----------------------------------------------------------------------------|

(4x)

(Parte 3)
E|----------------------------------------------------------------------------|
B|--0-----1-----3----5-----3------2-----1------1-----1------0-----------------|
G|-----0-----0----0-----0-----0------0-----0------------0---------------------|
D|--------------------------------------0--0------0---------------------------|
A|--------0-----2----3-----2------0-------------------------------------------|
E|--3-------------------------------------------------------3-----------------|

Verso:
(Parte 1)
Blackbird singing in the dead of night,
Take these broken wings and learn to fly.
(Parte 2)
All your life,
(Parte 3)
You were only waiting for this moment to arise.

(Parte 4)
E|--------------------------------------------------------------------------|
B|--5----3-----2-----2----2----1----1---1----0-----0-----0------------------|
G|----0-----0-----0---------0-----0-------0-----0-----------0---------------|
D|----------------0------------0--0---0---------0---------------------------|
A|--3----2-----0-------0----------------------------------------------------|
E|-------------------------------------------3--------3---------------------|
    You were only waiting for this moment to arise.

E|--------------------------------------------------------------------------|
B|--5----3-----2-----2----2----1----1---1----0------------------------------|
G|----0-----0-----0---------0-----0-------0-----0---------------------------|
D|----------------0------------0--0---0---------0---------------------------|
A|--3----2-----0-------0----------------------------------------------------|
E|-------------------------------------------3------------------------------|
    You were only waiting for this moment to arise
Composição de John Lennon / McCartney
Colaboração e revisão:
  • Pedro
9.684 exibições
    • ½ Tom
    • A
    • Bb
    • B
    • C
    • Db
    • D
    • Eb
    • E
    • F
    • F#
    • G
    • Ab
  • Adicionar à lista

    0 comentários

    Mostrar mais comentários
    00:00 / 00:00
    outros vídeos desta música
    repetir qualidade Automático
    Outros vídeos desta música
    00:00 / 00:00
    Automático
    Capítulos
    • Início
    • Tocando a música
    • Ensinando Introdução
    • Ensinando Primeira Parte
    • Tocando Refrão
    • Ensinando Refrão
    • Encerramento

    Cifra Club Pro

    Aproveite o Cifra Club com benefícios exclusivos e sem anúncios
    7 dias grátis
    Cifra Club Pro
    Aproveite o Cifra Club com benefícios exclusivos e sem anúncios
    7 dias grátis
    OK