Cifra Club

Aprenda

Blackbird

The Beatles

Cifra: Versão 2 (violão e guitarra)
Tom: G
Intro:
E|---------------------------------------------
B|----0-----1-----3-----12-------12--12------12
G|----0-----0-----0------------0------------0--
D|---------------------------------------------
A|----------0-----2-----10--10-------10--10----
E|----3----------------------------------------

      Blackbird singing in the dead of night
E|---------------------------------------------
B|----0-----1-----3-----12-------12--12------12
G|----0-----0-----0------------0------------0--
D|---------------------------------------------
A|----------0-----2-----10--10-------10--10----
E|----3----------------------------------------

  Take these broken wings and learn to fly
E|-----------------------------
B|----5-----8-----7-----10-----
G|----0-----0-----0-----0------
D|-----------------------------
A|----3-----4-----5-----6------
E|-----------------------------

E|-------------------
B|8------8---8------8
G|-----0----------0--
D|-------------------
A|7--7-------6--6----
E|-------------------

     All  your  life
E|-------------------------------------
B|----7-----8-----5------5---4------4--
G|----0-----0----------0----------0----
D|-------------------------------------
A|----5-----4-----3--3-------3--3------
E|-------------------------------------

You were only waiting for this moment to arise.
E|------------------------------------------
B|----3------3--2------2--1------1--0------0
G|----0----0---------0---------0----0----0--
D|------------------------------------------
A|----2--2------0--0------0--0--------------
E|----------------------------------3--3----

(intervalo) (depois da 1ª estrofe, antes de voltar para a 2ª)
E|--------------------------------------------
B|-----5-----3----2------2--1------1--0------0
G|-----0-----0---------0---------0----0----0--
D|--------------------------------------------
A|-----3-----2----0--0------0--0--------------
E|------------------------------------3--3----

(blackbird,                 fly)
E|-------------------------------------------
B|----10----8----6----5----3------3--3------5
G|----0-----0----0----0---------0---------0--
D|-------------------------------------------
A|----8-----7----5----3----1--1------5--3----
E|-------------------------------------------

(blackbird,                 fly            into...     ...night)
E|---------------------------------------------------------------
B|----10----8----6----5----3------3--2------2--1------1--0------0
G|----0-----0----0----0---------0---------0---------0----0----0--
D|---------------------------------------------------------------
A|----8-----7----5----3----1--1------0--0------0--0--------------
E|-------------------------------------------------------3--3----

E|----------------------------------
B|----0-----1-----3--3-----1-----0--
G|----0-----0-----0--0-----0-----0--
D|----------------------------------
A|----------0-----2--2-----1--------
E|----3--------------------------3--

G          Am7             G/B    G
Blackbird singing in the dead of night,
 C          A7/C#    D4    B7(b13)/Eb Em  B7(b13)/Eb
Take these broken wings and learn to fly
D4  A7/C#  C   Cm
All your life,
G/B            A7              Am7         G   Am7 G/B C  G A7 Am7
You were only waiting for this moment to arise

G          Am7             G/B    G
Blackbird singing in the dead of night,
 C          A7/C# D4     B7(b13)/Eb  Em  B7(b13)/Eb
Take these sunken eyes and learn to see
D4  A7/C#  C   Cm
All your life,
G/B           A7              Am7            G
You were only waiting for this moment to be free

F9  Em Dm4  C Bb6 C
Blackbird,    fly
F9  Em Dm4  C Bb6 A7       Am7                G
Blackbird,    fly Into the light of a dark, blacknight
Composição de John Lennon / McCartney
Colaboração e revisão:
96.156 exibições
    • ½ Tom
    • A
    • Bb
    • B
    • C
    • Db
    • D
    • Eb
    • E
    • F
    • F#
    • G
    • Ab
  • Adicionar à lista

    0 comentários

    Mostrar mais comentários
    00:00 / 00:00
    outros vídeos desta música
    repetir qualidade Automático
    Outros vídeos desta música
    00:00 / 00:00
    Automático
    Capítulos
    • Início
    • Tocando a música
    • Ensinando Introdução
    • Ensinando Primeira Parte
    • Tocando Refrão
    • Ensinando Refrão
    • Encerramento

    Cifra Club Pro

    Aproveite o Cifra Club com benefícios exclusivos e sem anúncios
    7 dias grátis
    Cifra Club Pro
    Aproveite o Cifra Club com benefícios exclusivos e sem anúncios
    7 dias grátis
    OK