Blackbird

The Beatles

Composição: John Lennon / McCartney
Tom: G
Intro:

E|-----------------------------------------
B|-0-----1-----3----3/12---------12--------
G|----0-----0-----0-------0-0--------0-----
D|-----------------------------------------
A|-------0-----2----2/10~-----10~----------
E|-3---------------------------------------

E|-----------------------------------------
B|-12----------12---12----------12---------
G|-----0-0--------0-----0-0--------0-------
D|-----------------------------------------
A|-10~-----10~------10~-----10~------------
E|-----------------------------------------

E|-----------------------------------------
B|-12---------12---------------------------
G|-----0-0-------0-------------------------
D|-----------------------------------------
A|-10~-----10~-----------------------------
E|-----------------------------------------

Primeira Parte:

E|-----------------------------------------
B|-0-----1-----3----3/12---------12--------
G|----0-----0-----0-------0-0--------0-----
D|-----------------------------------------
A|-------0-----2----2/10------10-----------
E|-3---------------------------------------

E|-----------------------------------------
B|-12---------12---------------------------
G|-----0-0--------0------------------------
D|-----------------------------------------
A|-10------10------------------------------
E|-----------------------------------------

E|------3---------5------------------------
B|-5---------7-----------------------------
G|----0----0----0----0---------------------
D|-----------------------------------------
A|-3----4----5----6------------------------
E|-----------------------------------------

E|-----------------------------------3-----
B|-8--------8----8--------8-----7----------
G|----0-0-----0-----0-0-----0------0----0--
D|-----------------------------------------
A|-7------7------6------6-------5----4-----
E|-----------------------------------------

E|-----------------------------------------
B|5--------5----4--------4----3--------3---
G|---0-0-----0-----0-0-----0-----0-0-----0-
D|-----------------------------------------
A|3------3------3------3------2------2-----
E|-----------------------------------------

E|-----------------------------------------
B|2--------2----1--------1----0--------0---
G|---0-0-----0-----0-0-----0-----0-0-----0-
D|--------------0------0-------------------
A|0------0---------------------------------
E|----------------------------3------3-----

(final da primeira vez)

E|-----------------------------------------
B|-5----3-----2--------2----1--------1-----
G|----0----0-----0-0-----0-----0-0-----0---
D|--------------------------0------0-------
A|-3----2-----0------0---------------------
E|-----------------------------------------

E|-----------------------------------------
B|-0--------0------------------------------
G|----0-0-----0----------------------------
D|-----------------------------------------
A|-----------------------------------------
E|-3------3--------------------------------

*Apenas da última vez:

** Repetir a primeira TAB 2 vezes e terminar assim:

E|----3------------------------------------
B|-0--0------------------------------------
G|----0------------------------------------
D|----0------------------------------------
A|-----------------------------------------
E|-3--3------------------------------------


Blackbird singing in the dead of night
Take these broken wings and learn to fly
All your life
You were only waiting for this moment to arise

Blackbird singing in the dead of night
Take these sunken eyes and learn to see
All your life
You were only waiting for the moment to be free

(refrão)

E|-----------------------------------------
B|10---8---6---5---3-------3---5-------5---
G|---0---0---0---0---0-0-----0---0-0-----0-
D|-----------------------------------------
A|8----7---5---3---1-----1-----3-----3-----
E|-----------------------------------------

E|-----------------------------------------
B|10---8---6---5---3-------3---2-------2---
G|---0---0---0---0---0-0-----0---0-0-----0-
D|-----------------------------------------
A|8----7---5---3---1-----1-----0-----0-----
E|-----------------------------------------

E|-----------------------------------------
B|-1--------1------------------------------
G|----0-0-----0----------------------------
D|-0------0--------------------------------
A|-----------------------------------------
E|-----------------------------------------

após o 1º refrão:

E|-----------------------------------------
B|-0-----1-----3----3/12---------12--------
G|----0-----0-----0-------0-0--------0-----
D|-----------------------------------------
A|-------0-----2----2/10~-----10~----------
E|-3---------------------------------------

E|-----------------------------------------
B|-11/12----------12---11/12----------12---
G|--------0-0--------0--------0-0--------0-
D|-----------------------------------------
A|-9-/10~-----10~------9-/10~-----10~------
E|-----------------------------------------

E|-----------------------------------------
B|-12---------12---------------------------
G|-----0-0-------0-------------------------
D|-----------------------------------------
A|-10~-----10~-----------------------------
E|-----------------------------------------

após o 2º refrão:

E|-----------------------------------------
B|-0-----1-----3----3/12---------12--------
G|----0-----0-----0-------0-0--------0-----
D|-----------------------------------------
A|-------0-----2----2/10~-----10~----------
E|-3---------------------------------------

E|-----------------------------------------
B|-11/12----------12---12----------13-12---
G|--------0-0--------0-----0-0-------------
D|-----------------------------------------
A|-9-/10~-----10~------10~-----10~-12-10---
E|-----------------------------------------

E|-----------------------------------------
B|0---1---3---5---3---2----1---------1-----
G|--0---0---0---0---0---0-----0-0------0---
D|-------------------------0-------0-------
A|----0---2---3---2---0--------------------
E|3----------------------------------------

Black bird fly, black bird fly
Into the light of the dark black night

(repetições)

Blackbird singing in the dead of night
Take these broken wings and learn to fly
All your life
You were only waiting for this moment to arise

Black bird fly, black bird fly
Into the light of the dark black night

Blackbird singing in the dead of night
Take these sunken eyes and learn to see
All your life

You were only waiting for the moment to be free
You were only waiting for the moment to be free
You were only waiting for the moment to be free
Página 1 / 1

Letras e título
Acordes e artista

resetar configurações
OK