Cifra Club

Blackbird

The Beatles

Cifra: Versão 6 (violão e guitarra)
Tom: G
/------------------------------------------3-------5---------------------------------------------
/--0----2---3---12---12---12---12---12-5-----0-7-----0-8---8---8---8---7---8---5---5---5-4---4---
/----0----0---0----0----0----0----0------0-------0-------0---0---0---0---0---0---0---0-----0---0-
/------------------------------------------------------------------------------------------------
/------0----2---10--------10--------10-3---5---5---7---7-------6-------5---4---3---------3-------
/--3---------------------------------------------------------------------------------------------

/-------------------------------------------------------
/-3---3---2---2---1---1---0---2---3---5---3---2---1---0-
/---0---0---0---0---0---0---0---0---0---0---0---0---0---
/-------------------------------------------------------
/-2-------0-------0-----------0---2---3---2---0---0-----
/-------------------------3---------------------------3-

/------------------------------------------3-------5---------------------------------------------
/--0----2---3---12---12---12---12---12-5-----0-7-----0-8---8---8---8---7---8---5---5---5-4---4---
/----0----0---0----0----0----0----0------0-------0-------0---0---0---0---0---0---0---0-----0---0-
/------------------------------------------------------------------------------------------------
/------0----2---10--------10--------10-3---5---5---7---7-------6-------5---4---3---------3-------
/--3---------------------------------------------------------------------------------------------

/-------------------------------------------------------
/-3---3---2---2---1---1---0---2---3---5---3---2---1---0-
/---0---0---0---0---0---0---0---0---0---0---0---0---0---
/-------------------------------------------------------
/-2-------0-------0-----------0---2---3---2---0---0-----
/-------------------------3---------------------------3-

/--------------------------------------------------------------------------------------
/-10---8---7---3---3---5---5----10---8---7---3---3---5---5---4---4---2---2---1---1---0-
/----0---0---0---0---0---0---0-----0---0---0---0---0---0---0---0---0---0---0---0---0---
/--------------------------------------------------------------------------------------
/-8----7---5---1-------3--------8----7---5---1-------3-------3-------0-------0-------3-
/--------------------------------------------------------------------------------------
exibições 10.601
Acordes para:
    Composição: John Lennon / McCartney Colaboração e revisão:
    • damian88

    0 comentários

    mostrar mais comentários

    Conseguiu tocar?

    1 tocaram 1 ainda não

    Grave um vídeo tocando Blackbird e mande pra gente!

    00:00 / 00:00
    outros vídeos desta música
    repetir qualidade Automático
    Outros vídeos desta música
    00:00 / 00:00
    Automático
    Capítulos
    • Início
    • Tocando a música
    • Ensinando Introdução
    • Ensinando Primeira Parte
    • Tocando Refrão
    • Ensinando Refrão
    • Encerramento
    OK