Come Together

The Beatles

Composição de: John Lennon / Paul McCartney
tom: G
[Intro] D5

  P.M .
E|------------------------------------------|
B|------------------------------------------|
G|-----------5------------------------------|
D|-7--7--5/7--------------------------------|
A|-5--5-------------------------------------|
E|------------------------------------------|

[Primeira Parte]

  P.M. . . . . . . 
E|------------------------------------------|
B|------------------------------------------|
G|------------------------------------------| (4x)
D|-7-7-9-9-7-7-9-9--------------------------|
A|-5-5-5-5-5-5-5-5--------------------------|
E|------------------------------------------|

  P.M. . . . . . .
E|------------------------------------------|
B|------------------------------------------|
G|------------------------------------------| (2x)
D|------------------------------------------|
A|-7-7-9-9-7-7-9-9--------------------------|
E|-5-5-5-5-5-5-5-5--------------------------|

  P.M
E|------------------------------------------|
B|------------------------------------------|
G|------------------------------------------|
D|------------------------------------------|
A|-5----------------------------------------|
E|-3----------------------------------------|

D5
   Here come old flat top, he come
Grooving up slowly, he got
Joo Joo eyeball, he one
                    A5
Holy roller, he got

Hair down to his knee
 G5
Got to be a joker

He just do what he please

[Interlúdio]

[Segunda Parte]

D5
   He wear no shoeshine, he got
Toe jam football, he got
Monkey finger, he shoot
                  A5
Coca-cola, He say

"I know you, you know me"
G5
One thing I can tell 

You is you got to be free

[Refrão]

        B5      A5    G5  A5
Come Together, right now,    over me

[Interlúdio]

[Terceira Parte]

D5
   He bag production, he got
Wal-rus gumboot, he got
O-no sideboard, he one
                       A5
Spinal cracker, he got


Feet down below his knee
 G5
Hold you in his armchair

You can feel his disease

[Refrão]

        B5      A5    G5  A5
Come Together, right now,    over me

[Interlúdio]

[Solo de Teclado] D5

[Solo De Guitarra]

E|-15b17~---15b17-15b17r15p13--15b17~------------------|
B|-----------------------------------------------------|
G|-----------------------------------------------------|
D|-----------------------------------------------------|
A|-----------------------------------------------------|
E|-----------------------------------------------------|

E|-15b17~---15b17-15b17r15p13--------------------------|
B|-----------------------------15b17~------------------|
G|-----------------------------------------------------|
D|-----------------------------------------------------|
A|-----------------------------------------------------|
E|-----------------------------------------------------|

E|--------------------15b17~---------------------------|
B|-15b17-15b17r15p13-----------------------------------|
G|-----------------------------------------------------|
D|-----------------------------------------------------|
A|-----------------------------------------------------|
E|-----------------------------------------------------|

[Quarta Parte]

D5
   He roller coaster, he got
Early warning, he got
Muddy water, he one
                    A5
Mo-jo filter he say

One and one and one is three
 G5
Got to be good looking

Cause he so hard to see

[Refrão]

        B5      A5    G5  A5
Come Together, right now,    over me

[Interlúdio]

[Solo Final]

E|-----------------------------------------------------|
B|-13b15~----------------------------------------------|
G|-----------------------------------------------------|
D|-----------------------------------------------------|
A|-----------------------------------------------------|
E|-----------------------------------------------------|

E|-13b15--13b15r13p10----------------------------------|
B|---------------------13b15~--------------------------|
G|-----------------------------------------------------|
D|-----------------------------------------------------|
A|-----------------------------------------------------|
E|-----------------------------------------------------|

E|-----------------------------------------------------|
B|----------------13b15~-------------------------------|
G|-10--b14r12p10---------------------------------------|
D|-----------------------------------------------------|
A|-----------------------------------------------------|
E|-----------------------------------------------------|

E|-10--13b15r13p10-------------------------------------|
B|------------------13b15~-----------------------------|
G|-----------------------------------------------------|
D|-----------------------------------------------------|
A|-----------------------------------------------------|
E|-----------------------------------------------------|

E|------------------15b17~-----------------------------|
B|-10--13b15r13p10-------------------------------------|
G|-----------------------------------------------------|
D|-----------------------------------------------------|
A|-----------------------------------------------------|
E|-----------------------------------------------------|

E|-15b17--15b17r15p13--15b17~--------------------------|
B|-----------------------------------------------------|
G|-----------------------------------------------------|
D|-----------------------------------------------------|
A|-----------------------------------------------------|
E|-----------------------------------------------------|

E|-17--20b22r20p17--20b22~-----------------------------|
B|-----------------------------------------------------|
G|-----------------------------------------------------|
D|-----------------------------------------------------|
A|-----------------------------------------------------|
E|-----------------------------------------------------|

E|-17--20b22r20p17--20b22~-----------------------------|
B|-----------------------------------------------------|
G|-----------------------------------------------------|
D|-----------------------------------------------------|
A|-----------------------------------------------------|
E|-----------------------------------------------------|

E|-13--15b17r15p13--15b17~-----------------------------|
B|-----------------------------------------------------|
G|-----------------------------------------------------|
D|-----------------------------------------------------|
A|-----------------------------------------------------|
E|-----------------------------------------------------|

E|-----------------------------------------------------|
B|----------------13b15~-------------------------------|
G|-10--b14r12p10---------------------------------------|
D|-----------------------------------------------------|
A|-----------------------------------------------------|
E|-----------------------------------------------------|

E|-13b15--13b15r13p10----------------------------------|
B|---------------------13b15~--------------------------|
G|-----------------------------------------------------|
D|-----------------------------------------------------|
A|-----------------------------------------------------|
E|-----------------------------------------------------|

E|-13b15--13b15r13p10----------------------------------|
B|---------------------13b15~--------------------------|
G|-----------------------------------------------------|
D|-----------------------------------------------------|
A|-----------------------------------------------------|
E|-----------------------------------------------------|
Página 1 / 1

Letras e título
Acordes e artista

resetar configurações
OK