Cifra Club

Come Together

The Beatles

Tab de baixo: Principal
[Intro]

G|-----------10---------------------------------------|
D|--------------12\8----------------------------------|
A|-5-5--10h12-----------------------------------------|
E|----------------------------------------------------|

G|-----------10---------------------------------------|
D|--------------12\8----------------------------------|
A|-5-5--10h12-----------------------------------------|
E|----------------------------------------------------|

G|-----------10---------------------------------------|
D|--------------12\8----------------------------------|
A|-5-5--10h12-----------------------------------------|
E|----------------------------------------------------|

G|-----------10---------------------------------------|
D|--------------12\8----------------------------------|
A|-5-5--10h12-----------------------------------------|
E|----------------------------------------------------|

[Primeira Parte]

Here come old flat top,he come...

Parte 1 De 2

G|-----------10---------------------------------------|
D|---------------12/8---------------------------------|
A|-5-5--10h12-----------------------------------------|
E|----------------------------------------------------|

G|-----------10---------------------------------------|
D|---------------12/8---------------------------------|
A|-5-5--10h12-----------------------------------------|
E|----------------------------------------------------|

G|-----------10---------------------------------------|
D|---------------12/8---------------------------------|
A|-5-5--10h12-----------------------------------------|
E|----------------------------------------------------|

G|-----------10---------------------------------------|
D|---------------12/8---------------------------------|
A|-5-5--10h12-----------------------------------------|
E|----------------------------------------------------|

Hair down,to his knees... 

Parte 2 De 2

G|----------------------------------------------------|
D|------------10----------------10--------------------|
A|------10h12----12h8-----10h12----12h8---------------|
E|-5-5----------------5-5---------------3-------------|

[Intro]

G|-----------10---------------------------------------|
D|--------------12\8----------------------------------|
A|-5-5--10h12-----------------------------------------|
E|----------------------------------------------------|

G|-----------10---------------------------------------|
D|--------------12\8----------------------------------|
A|-5-5--10h12-----------------------------------------|
E|----------------------------------------------------|

G|-----------10---------------------------------------|
D|--------------12\8----------------------------------|
A|-5-5--10h12-----------------------------------------|
E|----------------------------------------------------|

G|-----------10---------------------------------------|
D|--------------12\8----------------------------------|
A|-5-5--10h12-----------------------------------------|
E|----------------------------------------------------|

[Segunda Parte]

He wear no shoe shine,he got...

Parte 1 De 2

G|-----------10---------------------------------------|
D|---------------12/8---------------------------------|
A|-5-5--10h12-----------------------------------------|
E|----------------------------------------------------|

G|-----------10---------------------------------------|
D|---------------12/8---------------------------------|
A|-5-5--10h12-----------------------------------------|
E|----------------------------------------------------|

G|-----------10---------------------------------------|
D|---------------12/8---------------------------------|
A|-5-5--10h12-----------------------------------------|
E|----------------------------------------------------|

G|-----------10---------------------------------------|
D|---------------12/8---------------------------------|
A|-5-5--10h12-----------------------------------------|
E|----------------------------------------------------|

I know you,you know me...

Parte 2 De 2

G|----------------------------------------------------|
D|------------10----------------10--------------------|
A|------10h12----12h8-----10h12----12h8---------------|
E|-5-5----------------5-5---------------3-------------|

[Refrão]

Come Together,right now,over me...

G|----------------------------------------------------|
D|----------------------------------------------------|
A|----------------------------------------------------|
E|-7-7-7-7-7-7-5-5--3-3-3-3-5-------------------------|

[Intro] 

Parte 1 De 2

G|-----------10---------------------------------------|
D|--------------12\8----------------------------------|
A|-5-5--10h12-----------------------------------------|
E|----------------------------------------------------|

G|-----------10---------------------------------------|
D|--------------12\8----------------------------------|
A|-5-5--10h12-----------------------------------------|
E|----------------------------------------------------|

G|-----------10---------------------------------------|
D|--------------12\8----------------------------------|
A|-5-5--10h12-----------------------------------------|
E|----------------------------------------------------|

Parte 2 De 2

G|------------10-10h12-10h12-10\7---------------------|
D|----------------------------------------------------|
A|-5-5--10h12-----------------------------------------|
E|----------------------------------------------------|

[Terceira Parte]

He bag production,he got...

Parte 1 De 2

G|-----------10---------------------------------------|
D|---------------12/8---------------------------------|
A|-5-5--10h12-----------------------------------------|
E|----------------------------------------------------|

G|-----------10---------------------------------------|
D|---------------12/8---------------------------------|
A|-5-5--10h12-----------------------------------------|
E|----------------------------------------------------|

G|-----------10---------------------------------------|
D|---------------12/8---------------------------------|
A|-5-5--10h12-----------------------------------------|
E|----------------------------------------------------|

G|-----------10---------------------------------------|
D|---------------12/8---------------------------------|
A|-5-5--10h12-----------------------------------------|
E|----------------------------------------------------|

Feet down below his knee...

Parte 2 De 2

G|----------------------------------------------------|
D|------------10----------------10--------------------|
A|------10/12----12/8-----10/12----12/8---------------|
E|-5-5----------------5-5---------------3-------------|

[Refrão]

Come Together,right now,over me...

G|----------------------------------------------------|
D|----------------------------------------------------|
A|----------------------------------------------------|
E|-7-7-7-7-7-7-5-5--3-3-3-3-5-------------------------|

[Intro]

G|-----------10-----------------10-10h12\8------------|
D|--------------12\8----------------------------------|
A|-5-5--10h12--------5-5--10h12-----------------------|
E|----------------------------------------------------|

[Solo De Guitarra]

Parte 1 De 4

G|----------------------------------------------------|
D|----------------------------------------------------|
A|-5-5-5-5-5-5-5-5--5-5-5-5-5-5-5-5-------------------|
E|----------------------------------------------------|

Parte 2 De 4

G|----------------------------------------------------|
D|----------------------------------------------------|
A|-5-5-5-5-5-5-5-5--5-5-5-5-5-5-5-5-------------------|
E|----------------------------------------------------|

Parte 3 De 4

G|----------------------------------------------------|
D|----------------------------------------------------|
A|----------------------------------------------------|
E|-5-5-5-5-5-5-5-5—5-5-5-5-5-5--5-5-5-5---------------|

Parte 4 De 4

G|----------------------------------------------------|
D|----------------------------------------------------|
A|----------------------------------------------------|
E|-5-5-5-5-5-5-5-5--5-5-5-5-5-5-5-5-------------------|

[Intro]

G|-----------10-----------------10h12-10h12-10/8------|
D|--------------12\8----------------------------------|
A|-5-5--10h12---------5-5--10h12----------------------|
E|----------------------------------------------------|

[Quarta Parte]

He roller coaster,he got...

Parte 1 De 2

G|-----------10---------------------------------------|
D|---------------12/8---------------------------------|
A|-5-5--10h12-----------------------------------------|
E|----------------------------------------------------|

G|-----------10---------------------------------------|
D|---------------12/8---------------------------------|
A|-5-5--10h12-----------------------------------------|
E|----------------------------------------------------|

G|-----------10---------------------------------------|
D|---------------12/8---------------------------------|
A|-5-5--10h12-----------------------------------------|
E|----------------------------------------------------|

G|-----------10---------------------------------------|
D|---------------12/8---------------------------------|
A|-5-5--10h12-----------------------------------------|
E|----------------------------------------------------|

One and one and one is three...

Parte 2 De 2

G|----------------------------------------------------|
D|------------10----------------10--------------------|
A|------10/12----12/8-----10/12----12/8---------------|
E|-5-5----------------5-5---------------3-------------|

[Refrão]

Come Together,right now,over me...

G|----------------------------------------------------|
D|----------------------------------------------------|
A|----------------------------------------------------|
E|-7-7-7-7-7-7-5-5—3-3-3-3-5--------------------------|

[Intro]

Parte 1 De 2

G|-----------10---------------------------------------|
D|--------------12\8----------------------------------|
A|-5-5--10h12-----------------------------------------|
E|----------------------------------------------------|

G|-----------10---------------------------------------|
D|--------------12\8----------------------------------|
A|-5-5--10h12-----------------------------------------|
E|----------------------------------------------------|

G|-----------10---------------------------------------|
D|--------------12\8----------------------------------|
A|-5-5--10h12-----------------------------------------|
E|----------------------------------------------------|

Parte 2 De 2

G|------------10-12p10-12\8---------------------------|
D|----------------------------------------------------|
A|-5-5--10h12-----------------------------------------|
E|----------------------------------------------------|

[Final 7x]

G|----------------------------------------------------|
D|----------------------------------------------------|
A|-5-5-5-5-5-5-5-5--5-5-5-5-5-5-5-5-------------------|
E|----------------------------------------------------|

[Quinta Parte]

Opção de levada

G|----------------------------------------------------|
D|------15-14-12----10-12-10-12-10--------------------|
A|-5/12----------12----------------12-10--------------|
E|----------------------------------------------------|
Composição de John Lennon / Paul McCartney
Colaboração e revisão:
  • Gustavo Vaz
  • Reginaldo Costa
70.203 exibições

0 comentários

Ver todos os comentários
00:00 / 00:00
Outros vídeos desta música
Repetir Qualidade Automático
Outros vídeos desta música
00:00 / 00:00
Automático
Capítulos
  • Início
  • Tocando a Música
  • Tocando Introdução
  • Ensinando Introdução
  • Tocando Primeira Parte
  • Ensinando Primeira Parte
  • Tocando Segunda Parte e Refrão
  • Ensinando Refrão
  • Tocando Variação da Introdução
  • Ensinando Variação da Introdução
  • Tocando Terceira Parte
  • Ensinando Terceira Parte e Variação
  • Tocando Base Solo
  • Ensinando Base Solo
  • Tocando Terceira Variação Introdução
  • Ensinando Terceira Variação Introdução
  • Tocando Quarta Parte
  • Ensinando Quarta Variação Introdução
  • Tocando Final
  • Ensinando Final
  • Tocando Variação Final
  • Ensinando Variação Final
  • Encerramento

Cifra Club Pro

Aproveite o Cifra Club com benefícios exclusivos e sem anúncios
Cifra Club Pro
Aproveite o Cifra Club com benefícios exclusivos e sem anúncios
OK