Cifra Club

Come Together

The Beatles

Tab de baixo: Versão 2
[Intro - Primeira Parte]

G|--------------10--------|
D|------------------12\5--|
A|--------10h12-----------|  8x
E|--10-10-----------------|
 
G|--------5----------5----------|
D|-----------7----------7-------|
A|---0-0---------0-0------------|
E|--------------------------3---|
 
[Introdução - Segunda Parte - Refrão]

G|--------------10--------|
D|------------------12\5--|
A|--------10h12-----------|  8x
E|--10-10-----------------|
 
G|--------5----------5----------|
D|-----------7----------7-------|
A|---0-0---------0-0------------|
E|--------------------------3---|
 
G|------------------------------------------|
D|------------------------------------------|
A|--2-2-2-2-2-2--0-0------------------------|
E|---------------------3-3-3-3--5-----------|
 
[Introdução - Terceira Parte - Refrão]

G|--------------10--------|
D|------------------12\5--|
A|--------10h12-----------|  3x
E|--10-10-----------------|
 
G|--------------10--10h12-10h12--10-|
D|----------------------------------|
A|--------10h12---------------------|
E|--10-10---------------------------|

G|--------------10--------|
D|------------------12\5--|
A|--------10h12-----------|  4x
E|--10-10-----------------|
 
G|--------5----------5----------|
D|-----------7----------7-------|
A|---0-0---------0-0------------|
E|--------------------------3---|
 
G|------------------------------------------|
D|------------------------------------------|
A|--2-2-2-2-2-2--0-0------------------------|
E|---------------------3-3-3-3--5-----------|
 
[Introdução - Solos]

G|--------------10--------|
D|------------------12\5--|
A|--------10h12-----------|
E|--10-10-----------------|

G|-------------10--10h12--|
D|------------------------|
A|--------10h12-----------|
E|--10-10-----------------|
 
G|-----------------------------|
D|-----------------------------|
A|-----------------------------|  4x
E|--10-10--10-10--10-10--10-10-|

G|-----------------------------|
D|-----------------------------|
A|--12-12--12-12--12-12--12-12-| 4x
E|-----------------------------|

[Introdução - Quarta Parte- Refrão]

G|--------------10--------|
D|------------------12\5--|
A|--------10h12-----------|
E|--10-10-----------------|

G|---------10h12-10h12-10h12—10/-----|
D|-----------------------------------|
A|-----------------------------------|
E|--10-10----------------------------|
 
G|--------------10--------|
D|------------------12\5--|
A|--------10h12-----------|  4x
E|--10-10-----------------|
 
G|--------55----------55--------|
D|-----------7----------7-------|
A|---0-0---------0-0------------|
E|--------------------------3---|
 
G|------------------------------------------|
D|------------------------------------------|
A|--2-2-2-2-2-2--0-0------------------------|
E|---------------------3-3-3-3--5-----------|

[Introdução – Verso Final] 

G|--------------10--------|
D|------------------12\5--|
A|--------10h12-----------|  3x
E|--10-10-----------------|
 
G|--------------10---12-10-12-|
D|----------------------------|
A|--------10h12---------------|
E|--10-10---------------------|
 
G|--------------------------------|
D|--------------------------------|
A|--------------------------------|  18x
E|--10-10--10-10—-8h10-8h10-8h10--|

G|-------------------------------10--------------------------10---|
D|-----------------------------------12------------------------12-|
A|---------------------------\12-------------------------\12------|       
E|--10-10--10-10—-8h10-8h10-----------------8h10-8h10-------------|
Composição de John Lennon / Paul McCartney
Colaboração e revisão:
  • William Leão
3.213 exibições

0 comentários

Ver todos os comentários
00:00 / 00:00
Outros vídeos desta música
Repetir Qualidade Automático
Outros vídeos desta música
00:00 / 00:00
Automático
Capítulos
  • Início
  • Tocando a Música
  • Tocando Introdução
  • Ensinando Introdução
  • Tocando Primeira Parte
  • Ensinando Primeira Parte
  • Tocando Segunda Parte e Refrão
  • Ensinando Refrão
  • Tocando Variação da Introdução
  • Ensinando Variação da Introdução
  • Tocando Terceira Parte
  • Ensinando Terceira Parte e Variação
  • Tocando Base Solo
  • Ensinando Base Solo
  • Tocando Terceira Variação Introdução
  • Ensinando Terceira Variação Introdução
  • Tocando Quarta Parte
  • Ensinando Quarta Variação Introdução
  • Tocando Final
  • Ensinando Final
  • Tocando Variação Final
  • Ensinando Variação Final
  • Encerramento

Cifra Club Pro

Aproveite o Cifra Club com benefícios exclusivos e sem anúncios
Cifra Club Pro
Aproveite o Cifra Club com benefícios exclusivos e sem anúncios
OK