Notificações Amigos pendentes

      The Beatles

      Drive my car

      10.516 exibições
      INTRO
      |------------------5---7--|--------------|
      |-----------5-H-7---------|--------------|
      |-------------------------|--5-----------|
      |-------------------------|--------------|
      
      A %
            asked a...              wanted...                      she said...
          I told that...            prospects were...           and she...
          I told that...            start right...              and she...
      |--------------------------|---------------------------|-------------------------|
      |*-----------7-------------|---------------------------|-----------7-------------|
      |*--5-----9--------9\7--5--|---------------5-----------|--5-----9--------9\7--5--|
      |--------------------------|--3-----3--7-------7\5--3--|-------------------------|
      
         can't you...                I wanna...                star of the...
         understood                  working for...           all very...
         something...                I got no...              breaking my...
      |---------------------------|-------------------------|--------------------------|
      |---------------------------|-----------7-------------|--------------------------|
      |---------------5-----------|--5-----9--------9\7--5--|--------------5-----------|
      |--3-----3--7-------7\5--3--|-------------------------|--3-----3--7------7\5--3--|
      
         you can do...              in between
         I can show...              better...
         I've found a...            that's a...
      |--------------------------|------------------------------|
      |--------------------------|------------------------------|
      |--------------------------|-----------------7---9--7-----|
      |--5-----5--5--5-----5--5--|--5-----5-----9------------9--|
      
      B
         baby you...                               yes I'm...
      |--------------------|--------------------|--------------------|--------------------|
      |--------------------|--------------------|--------------------|--------------------|
      |--------------------|--------------------|--------------------|--------------------|
      |--7---7---7---7--5--|--3---3---3---3--5--|--7---7---7---7--5--|--3---3---3---3--5--|
      
        baby you...             and maybe...        TO CODA
      |----------------|---------------------------|
      |----------------|---------------------------|
      |----------------|---------------O-----------|
      |-7---7---7---7--|--O--2--3--O------3--2--O--|
      
      1______________________________________________________
      |--------------------------|---------------------------|
      |--------------------------|--------------------------*|
      |--5-----5--------5--------|------------------7-------*|
      |------------5/7-----7--3--|--5-----5---5--9-----9--5--|
      
      2________________________
                                 beep beep...
      |-----------------------|---------------|
      |-----------------------|---------------|
      |--5-----5-----5--5--5--|---------------|
      |-----------------------|--5------------|
      
      C
      |-------------------------|--------------------------|------------------------|
      |--------------7----------|--------------------------|--------------7---------|
      |--5-----5--9-----9\7--5--|--------------5--7--5-----|--5-----5--9-----9\7-5--|
      |-------------------------|--3-----3--7-----------7--|------------------------|
      
      |--------------------------|-------------------------|--------------------------|
      |--------------------------|--------------7----------|--------------------------|
      |--------------5--7--5-----|--5-----5--9-----9\7--5--|--------------5--7--5-----|
      |--3-----3--7-----------7--|-------------------------|--3-----3--7-----------7--|
      
      
      |--------------------------|-----------------------------|
      |--------------------------|-----------------------------|
      |--------------------------|-----------------7--9--7-----|
      |--5-----5--5--5-----5--5--|--5-----5--5--9-----------9--|
      
      D
         baby you...                                     yes I'm...
      |--------------------------|--------------------|--------------------------|
      |--------------------------|--------------------|--------------------------|
      |--------------------------|--------------------|--------------------------|
      |--7-----7-----7-----7--5--|--3---3---3---3--5--|--7-----7-----7-----7--5--|
      
                              baby you...                      and maybe...
      |--------------------|-----------------------|--------------------------|
      |--------------------|-----------------------|--------------------------|
      |--------------------|-----------------------|--------------O-----------|
      |--3---3---3---3--5--|--7-----7-----7-----7--|--O--2--3--O-----3--2--O--|
      
      |--------------------------|---------------------------|
      |--------------------------|---------------------------|
      |--5-----5--------5--------|------------------7--------|
      |------------5/7-----7--3--|--5-----5---5--9-----9--5--|
      
      CODA
      |---------------------------|
      |---------------------------|
      |--5-----5------------------|
      |--------------3---3-----3--|
      
         beep beep...                                          beep beep...      
      |-------------------|---------------------------------|--------------------------|
      |-------------------|*--------------------------------|--------------------------|
      |-------------------|*--5-----5-------------2---------|--------------------------|
      |--5----------------|--------------(--3--3------3--)--|--5-----5-----5--5-----5--|
      
                                    beep beep...
      |--------------------------|------------------------|
      |--------4--7--------------|-----------------------*|
      |--5-----------------2--5--|--------4--4--7--7--7--*|
      |--------------3--3--------|--5--5------------------|
      
      www.paulislivefaclube.hpg.com.br
      
      
      
      
      _______________________________________________________
      Contribuição: valdir felix junior(paulislivefaclube@ibest.com.br)

      Comentários 0

      140 .
      140 cancelar

      conseguiu tocar?

      covers

      Grave um vídeo tocando Drive my car e mande pra gente!

      Ex.: http://www.youtube.com/watch?v=0IvSvIwGdwk
      ver covers de outras músicas »
      0:00 / 0:00

      Capítulos

        2 versões de violão dificuldade exibições contribuição e correção
        2 versões de guitarra dificuldade exibições contribuição e correção
        2 versões de cavaco dificuldade exibições contribuição e correção
        2 versões de teclado dificuldade exibições contribuição e correção
        2 versões de baixo exibições contribuição e correção
        1 versão de gaita exibições contribuição e correção
        2 versões de Guitar Proformatodownloadscontribuição
        1 versão de partiturasformatodownloadscontribuição
        play/pausefechar subir/descer velocidade
        6ª corda E5ª corda A4ª corda D3ª corda G2ª corda B1ª corda E
          acordes
          publicidade
          fechar
          ok