Here Comes The Sun

The Beatles

Composição de: George Harrison
tom: G
[Intro]

Parte 01 de 02
   G                      C         C#º
A|---2-0-2------2---0-2-----2-0-2-----0h1p0------------|
E|---3-----3------3---------0-----3---------3----------|
C|-2----------2-----------0---------1------------------|
G|-----------------------------------------------------|

Parte 02 de 02
   G
A|---2-0------------0-----0-----0-----0----------------|
E|---3---3--------3-----3-----3-----3---3-2-0---3------|
C|-2--------2-2/4-----2-----0-----2-----------2--------|
G|-----------------------------------------------------|

[Primeira Parte]

Parte 01 de 02
   G                     C                 D
A|-2---0-2-------2-0-------------0---------------0-----|
E|-3---------3---3---3---0---3-----3---2p0-----3-----3-|
C|-2-2-----x---2---2---x---0---x-0---x-----2-x-2---x---|
G|---------x-----------x-------x-----x-------x-----x---|
   ↓             ↓

Parte 02 de 02
   G                       C             D
A|---2---0-2-------2-0---------2---0-------------0-----|
E|---3---------3---3---3---0---------3---2-----3-----3-|
C|-2-2-2-----x---2---2---x---0---x-0---x---2-x-2---x---|
G|-----------x-----------x-------x-----x-----x-----x---|
     ↓             ↓

[Refrão]

Parte 01 de 02
   G           G7           C            C#º
A|---2-0-2-------2---0-2------2-0-2---------0h1p0------|
E|---3-------3---1------------0-------3-----------3----|
C|-2---2---x---2---2-----x--0---0---x---1-x-1-------x--|
G|---------x-------------x----------x-----x---------x--|
     ↓           ↓            ↓

Parte 02 de 02
   G
A|---2-0--------------0-----0-----0-----0--------------|
E|---3---3----------3-----3-----3-----3---3-2-0--------|
C|-2---2---x--2-2/4-----2-----0-----2-----------2------|
G|---------x-------------------------------------------|
     ↓                                            

[Terceira Parte]

Parte 01 de 03 (5x)
   G            D           Bb  F   C
A|-2-2-2-2-2-0--0-0------0--1---0---3-----------------|
E|-3-3-3-3-3-0--2-2----2----1---1---0----0------------|
C|-2-2-2-2-2-0--2-2--2------2---0---0--2--------------|
G|-0-0-0-0-0----2-2---------3---2---0-----------------|
   ↓ ↓ ↓ ↑ ↓ ↑  ↓ ↓

Parte 02 de 03
   G
A|-2-2-2-2-2-0----------------------------------------|
E|-3-3-3-3-3-0----------------------------------------|
C|-2-2-2-2-2-0----------------------------------------|
G|-0-0-0-0-0------------------------------------------|
   ↓ ↓ ↓ ↑ ↓ ↑

Parte 03 de 03
   D          D4          D           D7            G
A|-0-0-0--0-0-0--0-0--0-0-0--0-0--0-0-3--3-3-3-3-3--3-|
E|-2-2-2--0-2-3--3-3--2-3-2--2-2--3-2-2--2-2-2-2-2--3-|
C|-2-2-2--2-2-2--2-2--2-2-2--2-2--2-2-2--2-2-2-2-2--2-|
G|-2-2-2--2-2-2--2-2--2-2-2--2-2--2-2-2--2-2-2-2-2--0-|
   ↓ ↓ ↓  ↑ ↓ ↑  ↓ ↓  ↑ ↓ ↑  ↓ ↓  ↑ ↓ ↑  ↓ ↓ ↑ ↓ ↑  ↓
Página 1 / 1

Letras e título
Acordes e artista

resetar configurações
OK