Cifra Club

Here Comes The Sun

The Beatles

Cifra: Ukulele (violão e guitarra)
tom: A
[Intro] A  D  E7
        A  D  E7

A|--4-0-2-4-0--4-2-0----4-2-0-----0-2-----------------|
E|-------------------2--------4-4---------------------|
C|----------------------------------------------------|
G|----------------------------------------------------|

A|--4-0-2-4-0--4-2-0---4-2-0--------------------------|
E|-------------------2-------4------------------------|
C|----------------------------------------------------|
G|----------------------------------------------------|

A
  Here comes the sun

A|--4-2-4-0--4-0-2-4----------------------------------|
E|----------------------------------------------------|
C|----------------------------------------------------|
G|----------------------------------------------------|

D                 B7
  Here comes the sun and I say

A|--4-2-4-0----4-0--4-2-0-----------------------------|
E|-----------2----------------------------------------|
C|----------------------------------------------------|
G|----------------------------------------------------|

A
  It's all right

A|-----0-2---0-2---0-2---0-2--0-----------------------|
E|-0-2-----2-----2-----2--------4-2-0-----------------|
C|----------------------------------------------------|
G|----------------------------------------------------|

A
  Little darling

A|--4-0-2-4-------------------------------------------|
E|----------------------------------------------------|
C|----------------------------------------------------|
G|----------------------------------------------------|

             D                E7
It's been a long cold lonely winter
A
  Little darling
               D                     E7
It feels like years since it's been here

A
  Here comes the sun
D                 B7
  Here comes the sun and I say
A
  It's all right

A
  Little darling
              D              E7
The smiles returning to the faces
A
  Little darling
               D                     E7
It seems like years since it's been here

A
  Here comes the sun
D                 B7
  Here comes the sun and I say
A
  It's all right

( A  E7 )

[Segunda Parte]

( C  G  D/F#  D  A  E7 )

C    G    D/F#  D       A    E7
Sun, sun, sun, here it comes
 C    G    D/F#  D       A    E7
Sun, sun, sun, here it comes
 C    G    D/F#  D       A    E7
Sun, sun, sun, here it comes
 C    G    D/F#  D       A    E7
Sun, sun, sun, here it comes
 C    G    D/F#  D       A    E7
Sun, sun, sun, here it comes

( E7  E7(9) )

[Primeira Parte]

A
  Little darling
            D              E7
I feel that ice is slowly melting
A
  Little darling
               D                      E7
It seems like years since it's been clear

[Refrão Final]

A
  Here comes the sun
D                 B7
  Here comes the sun and I say
A
  It's all right

A
  Here comes the sun
D                 B7
  Here comes the sun
A
  It's all right
A                C  
  It's all right

[Final] G  D/F#  D  A
Composição de George Harrison
Colaboração e revisão:
  • Teo Liberté
225 exibições
  • Simplificar cifra
    • ½ Tom
    • A
    • Bb
    • B
    • C
    • Db
    • D
    • Eb
    • E
    • F
    • F#
    • G
    • Ab
  • Adicionar à lista

    0 comentários

    Ver todos os comentários
    00:00 / 00:00
    Outros vídeos desta música
    Repetir Qualidade Automático
    Outros vídeos desta música
    00:00 / 00:00
    Automático

    Cifra Club Pro

    Aproveite o Cifra Club com benefícios exclusivos e sem anúncios
    Cifra Club Pro
    Aproveite o Cifra Club com benefícios exclusivos e sem anúncios
    OK