Enviar cifraEntrar

I'm only sleeping

The Beatles

Tab de baixo: Principal
exibições 5.650
A
   when I...                     morning                     lift my...
   everybody...                  lazy                        I don't...
|-----------------------------|--1-----1------------------|--------------------------------|
|*--1-----1----------------1--|--------------1-----1---4--|--4-----4-----------------------|
|*--------------1---1--1------|---------------------------|--------------2-----2--2-----1--|
|-----------------------------|---------------------------|--------------------------------|

   I'm still...               when I'm...              dream
   think they're...           running...               speed
|--------------------------|------------------------|------------------------|
|--4-----4--------------O--|--1-----------1---4-----|--------------1---1-----|
|--------------2--1--------|--------1------------1--|--------2------------2--|
|--------------------------|------------------------|--4---------------------|

   stay in...                       float up...
   till they...                     there's no...
|--------------------------------|--------------------------|-----------------|
|--4-----4-----------------------|--4-----4-----------------|-----------------|
|--------------1--2-----2-----1--|--------------1--2-----2--|--2-----1--------|
|--------------------------------|--------------------------|--------------4--|

B % 
   please don't...             don't shake me...           me where...
   please don't...             I'm miles...                and after...
|------------------------|---------------------------|------------------------|
|--4-----4------------4--|--6-----6---------------6--|--8-----8------------8--|
|--------------4---6-----|--------------6-P-4--6-----|--------------8---8-----|
|------------------------|---------------------------|------------------------|

         I'm only...     TO CODA 2
|-----------------------|
|--6-----6--------------|
|--------------6-----4--|
|-----------------------|

   sleeping               TO CODA 1
|-----------------------|
|-----------------------|
|-----------------------|
|--7-----7-----7-----6--|

1___________________ 2_________________
|-------------------|------------------|---------|---------------8----|
|---------8--------*|---------8--------|---------|---------8-------8--|
|--6--9---------9--*|--6--9---------9--|--6------|--6--9--------------|
|-------------------|------------------|---6-----|--------------------|

C
   keeping an...                 going by...            
|-----------------------------|------------------------|-----------------------|
|-----------------------------|------------------------|--6-----6-----4-----4--|
|--4-----4----------2--4------|--6-----6---------4--6--|-----------------------|
|--------------2/4---------4--|--------------6---------|-----------------------|

   taking my...    lying there...           ceiling                 waiting for...
|------4-----4--|------------------------|--1-----1-----------1--|---------------------------|
|--2------------|--1-----1------------1--|--------------1--------|--4-----4------------------|
|---------------|--------------1---1-----|-----------------------|--------------2-----2---1--|
|---------------|------------------------|-----------------------|---------------------------|

   sleepy feeling
|------------------------|
|--4-----4------------O--|
|------------2--1--------|
|------------------------|

D
|------------------------|------------------------|----------------------------|
|--1-----------1---4-----|--------------1---1-----|--4-----4-------------------|
|--------1------------1--|--------2------------2--|------------1--2-----2---1--|
|------------------------|--4---------------------|----------------------------|

|------------------------|-----------------------|
|--4-----4---------------|-----------------------|
|------------1--2-----2--|--2-----1-----------4--|
|------------------------|--------------4--------|

CODA 1
|--------------------|---------|-----------------8---|
|-----------8--------|---------|-----------8------8--|
|--6--9-----------9--|--6------|--6--9---------------|
|--------------------|---6-----|---------------------|

E
   keeping an...                     going by...
|-------------------------------|-----------------------|-----------------------|
|-------------------------------|-----------------------|--6-----6-----4-----4--|
|--4-----4----------2--4--------|--6-----6-----------6--|-----------------------|
|--------------2/4-----------4--|--------------6--------|-----------------------|

   taking my...
|--------4------4-----4---|
|--2------2------2-----2--|
|-------------------------|
|-------------------------| 

CODA 2
   sleeping
|-----------------------|-------------------|
|-----------------------|----------8--------|
|--2-----2-----1-----1--|--6---9---------9--|
|-----------------------|-------------------|

F
|---------|----------|----------|----------|
|---------|----------|----------|----------|
|--6------|----------|----------|----------|
|---6-----|----------|----------|----------|




_______________________________________________________
Contribuição: valdir felix(paulislivefaclube@ig.com.br)
  • 1
  • 2
  • 3
  • 4
  • 5
  • 6
  • 7
  • 8
  • 9
  • 10
  • 11
  • 12

    0 comentários

      mostrar mais comentários

      Conseguiu tocar?

      1tocaram0ainda não

      Grave um vídeo tocando I'm only sleeping e mande pra gente!

      00:00 / 00:00
      outros vídeos desta música
      repetirqualidadeautomática
      • automática
      Outro vídeos desta música
        00:00 / 00:00
        automática
        • automática
        Acordes para:violão e guitarra
        dificuldadeexibiçõescontribuições
        1 versão de Tab de baixoexibiçõescontribuições
        1 versão de Guitar Proformatodownloadscontribuição
        fecharplay/pause subir/descer velocidade
        fechar
        OK
        Feedback