Cifra Club

In Spite Of All The Danger

The Beatles

Cifra: Principal (violão e guitarra)
exibições 49.892
Tom: B
Intro:


E|---------11/13-13-11----11/13-13-11---------2-2-2-2-------------------------------------------------|
B|---10-13-------------13-------------13-11---0-0-0-0-------------------------------------------------|
G|-10-----------------------------------------2-2-2-2-------------------------------------------------|
D|--------------------------------------------1-1-1-1-------------------------------------------------|
A|--------------------------------------------2-2-2-2-------------------------------------------------|
E|----------------------------------------------------------------------------------------------------|

Solo:


E|-------------11/13--13--11------11/13--13----------11/13--13--11------11/13--13---------------------|
B|-----10--13-----------------13---------------10-13----------------13--------------------------------|
G|-10---------------------------------------10--------------------------------------------------------|
D|----------------------------------------------------------------------------------------------------|
A|----------------------------------------------------------------------------------------------------|
E|----------------------------------------------------------------------------------------------------|

E|----------11/13--13--11------11/13--13--11------13-11----13-11----13-11----13-----------------------|
B|----10-13----------------10-----------------13--------13-------13-------13--------------------------|
G|-10-------------------------------------------------------------------------------------------------|
D|----------------------------------------------------------------------------------------------------|
A|----------------------------------------------------------------------------------------------------|
E|----------------------------------------------------------------------------------------------------|

E|-13--16--16--15--13--16--16--15--13--16--16--15--13--16--16--15--13--13--13--11------13--13--11-----|
B|---------------------------------------------------------------------------------13--------------13-|
G|----------------------------------------------------------------------------------------------------|
D|----------------------------------------------------------------------------------------------------|
A|----------------------------------------------------------------------------------------------------|
E|----------------------------------------------------------------------------------------------------|

E|-13-11----13-11----13-11----13---------9-9-9-9---8---7-7-7-7----------------------------------------|
B|-------11-------13-------13------------7-7-7-7---6---5-5-5-5----------------------------------------|
G|---------------------------------------8-8-8-8---7---6-6-6-6----------------------------------------|
D|---------------------------------------9-9-9-9---8---7-7-7-7----------------------------------------|
A|----------------------------------------------------------------------------------------------------|
E|----------------------------------------------------------------------------------------------------|

E|-11/13--13--11------13--11--------------------------------------------------------------------------|
B|----------------13----------13--11------------------------------------------------------------------|
G|------------------------------------12--------------------------------------------------------------|
D|----------------------------------------------------------------------------------------------------|
A|----------------------------------------------------------------------------------------------------|
E|----------------------------------------------------------------------------------------------------|

                    E
In spite of all the danger,
                          E7
in spite of all that may be 
                     A
I'll do anything for you, 
                     B7
anything you want me to, 
                     E A E
if you'll be true to me.

                    E
In spite of all the heartache, 
                     E7
that you may cause me, 
                     A
I'll do anything for you, 
                     B7
anything you want me to,
                     E  A  E
if you'll be true to me.

     A
I'll look after you 
          E
like I've never done before.
     A
I'll keep all the others 
     B7
from knocking at your door.

                    E
In spite of all the danger,
                         E7
in spite of all that may be, 
                     A
I'll do anything for you, 
                     B7
anything you want me to, 
                     E  A  E
if you'll be true to me.

                  E
In spite of all the heartache 
                    E7
that you may cause me, 
                     A
I'll do anything for you, 
                     B7
anything you want me to,
                     E  A  E
if you'll be true to me. 

     A
I'll look after you 
          E
like I've never done before.
     A
I'll keep all the others 
     B7
from knocking at your door
                    E
In spite of all the danger,
                         E7
in spite of all that may be, 
                     A
I'll do anything for you, 
                     B7
anything you want me to, 
                     E A  E
if you'll be true to me.

                     A#
I'll do anything for you, 
                     C7
anything you want me to,
                     F  A#  F
if you'll be true to me.
Acordes para:

    0 comentários

      mostrar mais comentários

      Conseguiu tocar?

      34tocaram0ainda não

      Grave um vídeo tocando In Spite Of All The Danger e mande pra gente!

      00:00 / 00:00
      outros vídeos desta música
      repetirqualidadeAutomático
      Outro vídeos desta música
        00:00 / 00:00
        OK