Cifra Club

In Spite Of All The Danger

The Beatles

Cifra: Principal
exibições 47.435
Tom: F
Intro:


E|---------11/13-13-11----11/13-13-11-----------------------------------------------------------------|
B|---10-13-------------13-------------13-11-----------------------------------------------------------|
G|-10---------------------------------------12--------------------------------------------------------|
D|----------------------------------------------------------------------------------------------------|
A|----------------------------------------------------------------------------------------------------|
E|----------------------------------------------------------------------------------------------------|

Solo:


E|-------------11/13--13--11------11/13--13----------11/13--13--11------11/13--13---------------------|
B|-----10--13-----------------13---------------10-13----------------13--------------------------------|
G|-10---------------------------------------10--------------------------------------------------------|
D|----------------------------------------------------------------------------------------------------|
A|----------------------------------------------------------------------------------------------------|
E|----------------------------------------------------------------------------------------------------|

E|----------11/13--13--11------11/13--13--11------13-11----13-11----13-11----13-----------------------|
B|----10-13----------------10-----------------13--------13-------13-------13--------------------------|
G|-10-------------------------------------------------------------------------------------------------|
D|----------------------------------------------------------------------------------------------------|
A|----------------------------------------------------------------------------------------------------|
E|----------------------------------------------------------------------------------------------------|

E|-13--16--16--15--13--16--16--15--13--16--16--15--13--16--16--15--13--13--13--11------13--13--11-----|
B|---------------------------------------------------------------------------------13--------------13-|
G|----------------------------------------------------------------------------------------------------|
D|----------------------------------------------------------------------------------------------------|
A|----------------------------------------------------------------------------------------------------|
E|----------------------------------------------------------------------------------------------------|

E|-13-11----13-11----13-11----13----------------------------------------------------------------------|
B|-------11-------13-------13-------------------------------------------------------------------------|
G|--------------------------------12--12-12--12-12--12-12-12-11-10--10-10--10-10--10-10---------------|
D|----------------------------------------------------------------------------------------------------|
A|----------------------------------------------------------------------------------------------------|
E|----------------------------------------------------------------------------------------------------|

E|-11/13--13--11------13--11--------------------------------------------------------------------------|
B|----------------13----------13--11------------------------------------------------------------------|
G|------------------------------------12--------------------------------------------------------------|
D|----------------------------------------------------------------------------------------------------|
A|----------------------------------------------------------------------------------------------------|
E|----------------------------------------------------------------------------------------------------|

                    F
In spite of all the danger,

in spite of all that may be 
                     A#
I'll do anything for you, 
                     C7
anything you want me to, 
                     F  A#  F
if you'll be true to me.

                    F
In spite of all the heartache, 

that you may cause me, 
                     A#
I'll do anything for you, 
                     C7
anything you want me to,
                     F  A#  F
if you'll be true to me.

     A#
I'll look after you 
          F
like I've never done before.
     A#
I'll keep all the others 
     C7
from knocking at your door.

                    F
In spite of all the danger,
 
in spite of all that may be, 
                     A#
I'll do anything for you, 
                     C7
anything you want me to, 
                     F  A#  F
if you'll be true to me.

                    F
In spite of all the heartache 

that you may cause me, 
                     A#
I'll do anything for you, 
                     C7
anything you want me to,
                     F  A#  F
if you'll be true to me. 

     A#
I'll look after you 
          F
like I've never done before.
     A#
I'll keep all the others 
     C7
from knocking at your door.

                    F
In spite of all the danger,
 
in spite of all that may be, 
                     A#
I'll do anything for you, 
                     C7
anything you want me to, 
                     F  A#  F
if you'll be true to me.

                     A#
I'll do anything for you, 
                     C7
anything you want me to,
                     F  A#  F
if you'll be true to me.
Acordes para:

    0 comentários

      mostrar mais comentários

      Conseguiu tocar?

      32tocaram0ainda não

      Grave um vídeo tocando In Spite Of All The Danger e mande pra gente!

      00:00 / 00:00
      outros vídeos desta música
      repetirqualidadeautomática
      Outro vídeos desta música
        00:00 / 00:00
        automática
        OK