Cifra Club

Lady Madonna

The Beatles

Tab de baixo: Principal
exibições 1.894
Verso:
G|-----------------2-|----------------2-|---------------------0-0-2--|
D|----------0-0-34---|---------0-0-34---|----------0-0-2-2-3-3-------|
A|--0-0-3-4----------|-0-0-3-4----------|--0-0-3-4-------------------|   (2x)
E|-------------------|------------------|----------------------------|

Refrão:
G|---------------------------------------------
D|-----------------5-5-3-3-2-2-0-0-------------
A|-5-5-3-3-2-2-0-0-----------------3-3-2-2-0-0-
E|---------------------------------------------

G|------------------------------------------------------
D|-------------------------------------5-5-3-3-2-2-0-0--
A|-----0-0-2-2-3-3-4-4-5-5-3-3-2-2-0-0------------------
E|-3-3--------------------------------------------------

G|--------------------------------------
D|--------------------------------------
A|-3-5-3-7------------------------------
E|---------0----------------------------
Composição: John Lennon / Paul McCartneyColaboração e revisão:
  • Francisco Júnior
  • Fernando Comparini

0 comentários

    mostrar mais comentários

    Conseguiu tocar?

    2tocaram0ainda não

    Grave um vídeo tocando Lady Madonna e mande pra gente!

    00:00 / 00:00
    outros vídeos desta música
    repetirqualidadeautomática
    Outro vídeos desta música
      00:00 / 00:00
      automática
      OK