Cifra Club

Love Me Do

The Beatles

Tab de baixo: Principal
[Intro]

G|----------------------------------------------|
D|--5-------5--5-------5--5-------5--5-----5----|
A|----5-x-3------5-x-3------x-5-3------x-5---5--|
E|----------------------------------------------|

[Primeira Parte]

G|----------------------------------------------|
D|--5-------5--5-------5--5-------5-------------|
A|----5-3-x------x-5-3------5-3-x---------------|
E|----------------------------------------------|

G|----------------------------------------------|
D|----5---5------5-------5--5-------5-----------|
A|--3---3---x-3----5-3-x------5-3-x-------------|
E|----------------------------------------------|

[Segunda Parte]

G|----------------------------------------------|
D|--5-------5--5-------5--5-------5-------------|
A|----5-3-x------5-3-x------5-3-x---------------|
E|----------------------------------------------|

G|----------------------------------------------|
D|----5-----5----5-------5--5----5-5-x-4--------|
A|--3---3-x---3----5-3-x------5----------7------|
E|----------------------------------------------|

[Ponte]

G|----------------------------------------------|
D|----7-----7---5---5------7-----7---5---5--5---|
A|--5---5-x---3---x---5--5---5-x---3---3---5----|
E|----------------------------------------------|

[Terceira Parte]

G|----------------------------------------------|
D|--5-------5--5-------5--5-------5-------------|
A|----5-3-x------5-3-x------5-3-x---------------|
E|----------------------------------------------|

G|----------------------------------------------|
D|----5---------5-------5--5----5-5-x-4--------|
A|--3---3----3----5-3-x------5----------7------|
E|----------------------------------------------|

[Solo]

G|----------------------------------------------|
D|----7-----7-----5-5---------------------------|
A|--5---5-x---5-3-----x-5-----------------------|
E|----------------------------------------------|

G|----------------------------------------------|
D|----7-----7-----5-5-----5-----5-----5-----5---|
A|--5---5-x---3-x-----x-5---x-5---x-5---x-5---5-|
E|----------------------------------------------|

[Quarta Parte]

G|----------------------------------------------|
D|--5-------5--5-------5--5-------5-------------|
A|----5-3-x------5-3-x------5-3-x---------------|
E|----------------------------------------------|

G|----------------------------------------------|
D|----5-----5-----------------------------------|
A|--3---x-3---x-3-------------------------------|
E|----------------------------------------------|

[Final]

G|----------------------------------------------|
D|--5-------5-5-------5-5-------5-5-------5-----|
A|----5-3-x-----5-3-x-----5-3-x-----5-3-x-------|
E|----------------------------------------------|
00:00 / 00:00
Outros vídeos desta música
Repetir
Outros vídeos desta música
Composição de John Lennon / Paul McCartney
Colaboração e revisão:
  • Samuel Chacon
20.368 exibições

0 comentários

Ver todos os comentários

Entre para oCifra Club PRO

Tenha acesso a benefícios exclusivos no App e no Site

  • Chega de anúncios

  • Prioridade de compra em lançamentos

  • Mais recursos no app do Afinador

  • Atendimento Prioritário

  • Descontos nos produtos Cifra Club

  • Ajude a produzir mais conteúdo

00:00 / 00:00
Capítulos
  • Apresentação
  • Equipamentos
  • Introdução
  • Primeira Parte
  • Segunda Parte
  • Ponte
  • Terceira Parte
  • Solo
  • Quarta Parte
  • Final
  • Encerramento

Cifra Club Pro

Aproveite o Cifra Club com benefícios exclusivos e sem anúncios
Cifra Club Pro
Aproveite o Cifra Club com benefícios exclusivos e sem anúncios
OK