Notificações Amigos pendentes

      The Beatles

      Lucy In The Sky With Diamonds

      15.537 exibições
      INTRO
      |-----|-----|-----|-----|
      |-----|-----|-----|-----|
      |-----|-----|-----|-----|
      |-----|-----|-----|-----|
      
      A %
         picture...          in a...     boat on...        river...         tangerine...
         follow...           to a...     bridge...         fountain...      rocking...
         picture...          on a...     train...          station...       plasticine...
      |--2------------|--O------------|-----------------|----------------|------------------|
      |*--------------|---------------|--4--------------|--3-------------|--2---------------|
      |*--------------|---------------|-----------------|----------------|------------------|
      |---------------|---------------|-----------------|----------------|------------------|
      
         trees...         marmalade...        skies                     somebody...
         people...        marshmallow...      pies                      every one...
         porters...       looking...          ties                      suddenly...
      |--O-------------|-------------------|-------------|-----------|----------------|
      |----------------|--4----------------|--3-------3--|--------O--|--2-------------|
      |----------------|-------------------|------3------|--3--------|----------------|
      |----------------|-------------------|-------------|-----------|----------------|
      
               you...      answer...        slowly...        girl...
         smile as...       drift...         flowers...       grow...
         some one...       there at...      turn...          girl...
      |--O--------------|----------------|----------------|------------|--O-----|
      |-----------------|--4-------------|--3-------------|--2---------|--------|
      |-----------------|----------------|----------------|------------|--------|
      |-----------------|----------------|----------------|------------|--------|
      
         eyes...
         high...
         eyes...                     TO CODA
      |------2------|--2-------2--|   
      |--4-------4--|------4------|
      |-------------|-------------|
      |-------------|-------------|
      
      |-------------|-------------|
      |--O---O---O--|-------------|
      |-------------|--3---3---3--|
      |-------------|-------------|
      
      B
         cellophane...    flowers...    yellow...     green...      towering..    over...
      |----------------|-------------|-------------|-------------|-------------|-------------|
      |----------------|--3---3---3--|-------------|--5---5---5--|-------------|-------------|
      |--1---1---1-----|-------------|--3---3---3--|-------------|-------------|--3---3---3--|
      |----------------|-------------|-------------|-------------|--1---1---1--|-------------|
      
                                     look for...                   sun in...     eyes and...
      |-------------|--3----------|---------------|-------------|-------------|--O------------|
      |------O---3--|------3------|---------------|-------------|----------O--|------4---2----|
      |--1----------|----------1--|--3---3---3----|-------------|------2------|---------------|
      |-------------|-------------|---------------|--3---3---3--|--3----------|---------------|
      
         gone
      |------------|
      |--O---------|
      |------------|
      |------------|
      
      C
         Lucy in...                 diamonds
      |--------------------------|-----------------------------|
      |-----------------O--2--O--|--O--O--O--O--O--O--O--O-----|
      |--------O--2--3-----------|-----------------------------|
      |--3--3--------------------|--------------------------2--|
      
         Lucy in...                 diamonds                      Lucy in...
      |--------------------------|-----------------------------|--------------------------|
      |-----------------O--2--O--|--O--O--O--O--O--O--O--O-----|-----------------O--2--O--|
      |--------O--2--3-----------|-----------------------------|--------O--2--3-----------|
      |--3--3--------------------|--------------------------2--|--3--3--------------------|
      
      |--------------------------|---------------------------|
      |--O--O--O--O--O--O--O--O--|--O--7--O--7--O--7--O--7--*|
      |--------------------------|--------------------------*|
      |--------------------------|---------------------------|
      
      CODA
      |----------|
      |--O-------|
      |----------|
      |----------|
      
      
         news paper...                                shore...      waiting...
      |-------------|--3----------|---------------|-------------|-------------|---------------|
      |------O---3--|------3------|---------------|-------------|-----------3-|--3------------|
      |--1----------|----------1--|--3---3---3---3|-------------|------0------|----------3----|
      |-------------|-------------|---------------|--5--4----2--|--1----------|---------------|
      
                                     climb in...                   head in...            gone
      |-------------|--3----------|---------------|-------------|----------0--|---------------|
      |------O---3--|------3------|---------------|-------------|-------------|--4---2---0----|
      |--1----------|----------1--|--3---3-------3|-------------|------2------|---------------|
      |-------------|-------------|----------3----|--6---5---3--|--3----------|---------------|
      
      D
         Lucy in...                 diamonds
      |--------------------------|------------------------------|
      |*----------------O--2--O--|--O--O--O--O--O--O--O--O------|
      |*-------O--2--3-----------|------------------------------|
      |--3--3--------------------|---------------------------2--|
      
        Lucy in...                 diamonds                        ah
      |--------------------------|------------------------------|--------------------------|
      |-----------------O--2--O--|--O--O--O--O--O--O--O--O------|--O--4--7--4--O--4--O--4--|
      |--------O--2--3-----------|---------------------------O--|--------------------------|
      |--3--3--------------------|------------------------------|--------------------------|
      
      |---------------------------|
      |--------------------------*|
      |--O--4--7--4--O--4--7--O--*|
      |---------------------------|
        Composição: John Lennon / Paul McCartneyColaboração e revisão:
        • flpe

        Comentários 0

        140 .
        140 cancelar

        conseguiu tocar?

        covers

        Grave um vídeo tocando Lucy In The Sky With Diamonds e mande pra gente!

        Ex.: http://www.youtube.com/watch?v=0IvSvIwGdwk
        ver covers de outras músicas »
        0:00 / 0:00

        Capítulos

          2 versões de violão dificuldade exibições contribuição e correção
          2 versões de guitarra dificuldade exibições contribuição e correção
          2 versões de cavaco dificuldade exibições contribuição e correção
          2 versões de teclado dificuldade exibições contribuição e correção
          1 versão de baixo exibições contribuição e correção
          1 versão de gaita exibições contribuição e correção
          1 versão de Guitar Proformatodownloadscontribuição
          play/pausefechar subir/descer velocidade
          6ª corda E5ª corda A4ª corda D3ª corda G2ª corda B1ª corda E
            acordes
            publicidade
            fechar
            ok