Cifra Club

Mailman, Bring Me No More Blues

The Beatles

Cifra: Principal (violão e guitarra)
Tom: D
    A                           E
E |5-5-5- 5-5-5- 5-5-5- 5-5-5-|4-4-4- 4-4-4- 4-4-4- 4-4-4-|
B |5-5-5--5-5-5--5-5-5--5-5-5-|5-5-5--5-5-5--5-5-5--5-5-5-|
G |6-6-6--6-6-6--6-6-6--6-6-6-|4-4-4--4-4-4--4-4-4--4-4-4-|
D |---------------------------|---------------------------|
A |---------------------------|---------------------------|
E |---------------------------|---------------------------|

    A                           E
E |5-5-5- 5-5-5- 5-5-5- 5-5-5-|------ ------ ------ ------|
B |5-5-5--5-5-5--5-5-5--5-5-5-|---------------------------|
G |6-6-6--6-6-6--6-6-6--6-6-6-|-------2------1---1--2-----|
D |---------------------------|2---2--2---2--2---2--2-----|
A |---------------------------|2---2--4---2--2---2--4-----|
E |---------------------------|0---0--0---0--0---0--0-----|

E |5-5-5- 5-5-5- 5-5-5- 5-5-5\|4-4-4- 4-4-4- 4-4-4- 4-4-4-|
B |5-5-5--5-5-5--5-5-5--5-5-5\|5-5-5--5-5-5--5-5-5--5-5-5-|
G |6-6-6--6-6-6--6-6-6--6-6-6\|4-4-4--4-4-4--4-4-4--4-4-4-|
D |---------------------------|---------------------------|
A |---------------------------|---------------------------|
E |---------------------------|---------------------------|

E |5-5-5- 5-5-5- 5-5-5- 5-5-5-|------ 0----- 0----- ------|
B |5-5-5--5-5-5--5-5-5--5-5-5-|-------3------3------------|
G |6-6-6--6-6-6--6-6-6--6-6-6-|-------1------1------------|
D |---------------------------|2---2--2---2--2---2--2---2-|
A |---------------------------|2---2--2---2--2---2--2---2-|
E |---------------------------|0---0--0---0--0---0--0---0-|

    A
E |------ ------ ------ ------|------ ------ ------ ------|
B |-------4-------------4-----|-------4-------------------|
G |2---2--4------2---2--4-----|2---2--4------2---2--4-----|
D |2---2--4---2--2---2--4---2-|2---2--4---2--2---2--4-----|
A |0---0--0---0--0---0--0---0-|0---0--0---0--0---0--0-----|
E |---------------------------|---------------------------|

E |------ ------ ------ ------|------ ------ ------ ------|
B |---------------------------|---------------------------|
G |2------4------2---2--4---2-|----2--4------2---2--4---2-|
D |2------4------2---2--4---2-|----2--4---2--2---2--4---2-|
A |0------0------0---0--0---0-|----0--0---0--0---0--0---0-|
E |---------------------------|---------------------------|

    D
E |2----- 2----- 2---2- 2-----|2----- ------ ------ ------|
B |3---3--3---3--3---3--3---3-|3------3------3------3-----|
G |2---2--4---2--2---2--4---2-|2---2--4---2--2---2--4-----|
D |0---0--0---0--0---0--0---0-|0---0--0---0--0---0--0-----|
A |---------------------------|---------------------------|
E |---------------------------|---------------------------|

    A
E |------ ------ ------ ------|------ ------ ------ ------|
B |---------------------------|-------2-------------------|
G |2------2------2---2--2-----|2---2--2------2------2-----|
D |2------4---2--2---2--4---2-|2---2--2---2--2---2--2-----|
A |0------0---0--0---0--0---0-|0---0--0---0--0---0--0-----|
E |---------------------------|-------------------------0-|

    E                           D
E |------ ------ ------ ------|2----- 2---2- 2----- 2-----|
B |---------------------------|3------3---3--3------3-----|
G |---------------------2-----|2---2--4---2--2---2--4---2-|
D |2---2--2------2---2--2-----|0---0--0---0--0---0--0---0-|
A |2---2--4---2--2---2--2---2-|---------------------------|
E |0---0--0---0--0---0--0---0-|---------------------------|

    A                           E
E |------ ------ ------ ------|------ ------ ------ ------|
B |--------------2------2-----|---------------------------|
G |2---2--2---2--2------2-----|1---1--2------1------2-----|
D |2---2--4---2--2---2--4-----|2---2--2------2---2--2-----|
A |0---0--0---0--0---0--0---2-|2---2--4------2---2--4-----|
E |-------------------------0-|0---0--0---0--0---0--0---0-|

E |5-5-5- 5-5-5- 5-5-5- 5-5-5\|4-4-4- 4-4-4- 4-4-4- 4-4-4-|
B |5-5-5--5-5-5--5-5-5--5-5-5\|5-5-5--5-5-5--5-5-5--5-5-5-|
G |6-6-6--6-6-6--6-6-6--6-6-6\|4-4-4--4-4-4--4-4-4--4-4-4-|
D |---------------------------|---------------------------|
A |---------------------------|---------------------------|
E |---------------------------|---------------------------|

E |5-5-5- 5-5-5- 5-5-5- 5-5-5-|------ 0----- 0---0- 0---0-|
B |5-5-5--5-5-5--5-5-5--5-5-5-|-------3------3---3--3---3-|
G |6-6-6--6-6-6--6-6-6--6-6-6-|----1--1---1--1---1--1---1-|
D |---------------------------|2---2--2---2--2---2--2---2-|
A |---------------------------|2---2--2---2--2---2--2---2-|
E |---------------------------|0---0--0---0--0---0--0---0-|

E |------ ------ ------ ------|------ ------ ------ ------|
B |---------------------------|---------------------------|
G |----2---------2---2--2-----|2------2------2------2-----|
D |----2---------2---2--4-----|2---2--4------2------4-----|
A |----0------4--0---0--0---4-|0---0--0---4--0------0---4-|
E |---------------------------|---------------------------|

E |------ ------ ------ ------|------ ------ ------ ------|
B |---------------------------|---------------------------|
G |2------2---2--2---2--2---2-|----2--2---2--2---2--2---2-|
D |2------4---2--2---2--4---2-|----2--4---2--2---2--4---2-|
A |-0------0---0--0---0--0---0-|----0--0---0--0---0--0---0-|
E |---------------------------|---------------------------|

E |2---2- 2----- 2----- 2---2-|2----- 2----- 2----- 2-----|
B |3---3--3------3------3---3-|3---3--3------3------3-----|
G |2---2--4------2------4---2-|2---2--4---2--2------4---2-|
D |0---0--0------0------0---0-|0---0--0---0--0------0---0-|
A |---------------------------|---------------------------|
E |---------------------------|---------------------------|

E |------ ------ ------ ------|------ ------ ------ ------|
B |---------------------------|-------2-------------------|
G |2------2------2---2--2---2-|2------2------2------2---2-|
D |2------4------2---2--4---2-|2------4------2---2--2---2-|
A |-0------0---4--0---0--0---4-|0------0------0---0--0---0-|
E |---------------------------|---------------------------|

E |------ ------ ------ ------|2----- 2----- 2---2- 2-----|
B |---------------------------|3------3------3---3--3-----|
G |---------------------2---2-|2---2--2---2--2---2--2-----|
D |2---2--2------2------2---2-|0---0--0---0--0---0--0-----|
A |2---2--4---2--2------2---2-|-------------------------0-|
E |0---0--0---0--0------0---0-|---------------------------|

E |------ ------ ------ ------|------ ------ ------ ------|
B |---------------------------|------------------3--3---0-|
G |2---2--2------2------4---2-|-------2------2---1--1---1-|
D |2---2--4------2---2--4---2-|2---2--2------2---2--2---2-|
A |0---0--0------0---0--0---2-|2---2--2---2--2---2--2---2-|
E |---------------------------|0---0--0---0--0---0--0---0-|

E |------ ------ ------ ------|------ ------ ------ ------|
B |---------------------------|---------------------------|
G |2---2---------2---2--2---2-|2------2------2------2---2-|
D |2---2---------2---2--4---2-|2---2--4------2---2--4---2-|
A |0---0------4--0---4--0---4-|0---0--0---4--0---0--0---0-|
E |---------------------------|---------------------------|

E |------ ------ ------ ------|------ ------ ------ ------|
B |---------------------------|---------------------------|
G |2---2--2------2---2--2---2-|----2--2---2--2---2--2---2-|
D |2---2--4------2---2--4---2-|----2--4---2--2---2--4---2-|
A |-0---0--0------0---0--0---0-|----0--0---0--0---0--0---0-|
E |---------------------------|---------------------------|

E |2---2- 2----- 2----- 2---2-|2----- 2----- 2----- 2-----|
B |3---3--3------3------3---3-|3------3------3------3-----|
G |2---2--4------2------4---2-|2------4------2------4-----|
D |0---0--0------0------0---0-|0------0------0------0-----|
A |---------------------------|---------------------------|
E |---------------------------|---------------------------|
exibições 1.815
Acordes para:
    Composição: Clayton / Katz / Roberts

    0 comentários

    mostrar mais comentários

    Conseguiu tocar?

    1 tocaram 0 ainda não

    Grave um vídeo tocando Mailman, Bring Me No More Blues e mande pra gente!

    00:00 / 00:00
    outros vídeos desta música
    repetir qualidade Automático
    Outros vídeos desta música
    00:00 / 00:00
    Automático
    OK