Cifra Club

Oh! Darling

The Beatles

Tab de baixo: Principal
      oh
|---------|
|---------|
|---------|
|---------|

A
   darling...                        me                              I'll never...
|------------------------------|----------------------------------|--------------------------|
|------------------------------|----------------------------------|--------------------------|
|--------7-H-9--7-----4--5--6--|--7-------------------------------|--9-----9/12--9-----O-----|
|--5---------------------------|--------7-H-9--7-----7-H-9-----7--|-----------------------O--|

   harm                             me when...                 I'll never...
|------------------------------|----------------------------|-----------------|
|-------------7----------------|----------------------------|-----------------|
|--5-----7/9--------7/9-----5--|--------9-----7-----9-H-11--|--------9-----7--|
|------------------------------|--7--------7----------------|--7--------7-----|

   harm
|--------------------------------------|-----------------------|
|--------------------------------------|--7--7--7--7--6--4-----|
|-----------------4--5--5--5--5--6--7--|--------------------7--|
|--5--5--5--5--7-----------------------|-----------------------|

B %
   darling...
   darling...
   darling...    
|--------------------------------|-------------------------------------|
|*-------------------------------|--------9-H-11--9-----------9--------|
|*-7------7-H-9---7-----4--5--6--|--7-------------------9/11-----9/11--|
|---5----------------------------|-------------------------------------|

   I'll never...
   I'll never...
   I'll never...
|----------------------------|--------------------------------|-----------------------------|
|------------11--------------|-------------7----------7-------|-----------------------------|
|--9-----12---------12/9--7--|--5-----7/9--------7/9-----7/9--|--------5/6--9---7-----9/11--|
|----------------------------|--------------------------------|--7--------------------------|

   don't ever...
   I'll never...
       I'll never...               TO CODA
|--------------------------------|
|-----------------------------9--|
|--------9-----7-----7--9/11-----|
|--7--------7--------------------|

|--------------------------------------|-------------------------------------------------|
|--------------------------------------|-------------------------------------------------|
|-----------------4--5--5--5--5--4-----|-------------------------------------------------|
|--5--5--5--5--7--------------------7--|--5---5---5---5---5---5---7---7---8---9---9---7--|

C
   told me...                             need me...
|--------------------------------------|-----------------------------------|
|--------------------------------------|--3-----3--------------------3-----|
|--5-----5--5-----5--5-----5--5--6--7--|--------------3-----------3-----3--|
|--------------------------------------|-----------------1-----1-----------|

   know I...               cried                                    told me...
|-----------------------|----------------------------------------|-----------------------------|
|-----------------------|--7-------------------------------------|--------------------------11-|
|--O-----2-----3-----4--|--------7-H-9--7-H-9--7-----------7--9--|--------6-----9-----9/11-----|
|-----------------------|----------------------------8--9--------|--7--------------------------|

                                                                           1____________
   need me...
|------------------------------|------------------------------------------|-------------|
|--------------------------11--|------------------------------------------|------------*|
|--------6-----9-----9/11------|--7--7--7--7--9/11-----8--8--8--8--1O/12--|--7---------*|
|--7---------------------------|------------------------------------------|-------------|

2_______________
   died      oh
|---------------|
|---------------|
|--7------------|
|---------------|

CODA
   harm
|--------------------------------------|-----------------|----------|
|--------------------------------------|-----------------|----------|
|-----------------4--5--5--5--5--6--7--|-----------------|----------|
|--5--5--5--5--7-----------------------|--5-----6-----5--|--5-------|



_______________________________________________________
Contribuição: valdir felix junior(paulislivefaclube@ig.com.br)
exibições 16.321

0 comentários

mostrar mais comentários

Conseguiu tocar?

0 tocaram 0 ainda não

Grave um vídeo tocando Oh! Darling e mande pra gente!

00:00 / 00:00
outros vídeos desta música
repetir qualidade Automático
Outros vídeos desta música
00:00 / 00:00
Automático
OK