Cifra Club

Run For Your Life

The Beatles

Cifra: Principal
exibições 29.033
Tom: D
Intro: D

Riff:
E|-----------------------------|
B|-----------------------------|
G|------5---4---2--------------|
D|-----------------3--5--------|
A|---5-------------------------|
E|-----------------------------|

           D
Well I'd rather see you dead little girl
        Bm
Than to be with another man
              D
You better keep your head little girl
       Bm
Or you won't know where I am

            Bm                       E
You better run for your life if you can little girl
 Bm                      E
Hide your head in the sand little girl
Bm                     G
Catch you with another man
F#         Bm              D
That's the end little girl.
        
E|------------------|-------------------|
B|------------------|-------------------|
G|------------------|-----5--4--2-------|
D|------------------|--------------3--5-|
A|----------2--3--4-|--5----------------|
E|------------------|-------------------|

          D
Well you know that I'm a wicked guy
          Bm
And I was born with a jealous mind
    D
And I can spend my whole life
                Bm
Tryin' just to make you tow the line.
        
        
            Bm                       E
You better run for your life if you can little girl
 Bm                    E
Hide your head in the sand little girl
 Bm                     G
Catch you with another man
 F#         Bm               D
That's the end little girl.

Solo:

E|----15b(17)15-13-15-13------|-------15b(17)(17)-b(17)15-13-----|
B|----------------------15-13-|15-15------------------------15---|
G|----------------------------|----------------------------------|
D|----------------------------|----------------------------------|
A|----------------------------|----------------------------------|
E|----------------------------|----------------------------------|

E|---------15-----------------|----------------------------------|
B|-----15-----15b-15-13----13-|---11h13--13------10--------------|
G|-12-------------------14----|--------------12---------12-10----|
D|----------------------------|-------------------------------12-|
A|----------------------------|----------------------------------|
E|----------------------------|----------------------------------|

E|-----------------------|------------------------|
B|-----------------------|--------10--------------|
G|-----------------------|---12b------12--10------|
D|---------12----12------|-------------------12---|
A|-----/12-----12--------|------------------------|
E|-----------------------|------------------------|


 D
Let this be a sermon
        Bm
I mean every thing I said
 D
Baby I'm determined
           Bm
That I'd rather see you dead


            Bm                      E
You better run for your life if you can little girl
 Bm                    E
Hide your head in the sand little girl
 Bm                     G
Catch you with another man
 F#        Bm               D
That's the end little girl.

E|------------------|-------------------|
B|------------------|-------------------|
G|------------------|-----5--4--2-------|
D|------------------|--------------3--4-|
A|----------2--3--4-|--5----------------|
E|------------------|-------------------|

       D
I'd rather see you dead little girl
        Bm
Than to be with another man
     D
You better keep your head little girl
         Bm
Or you won't know where I am


           Bm                        E
You better run for your life if you can little girl
Bm                     E
Hide your head in the sand little girl
Bm                     G
Catch you with another man
 F#        Bm               D
That's the end little girl.

E|------------------|-------------------|
B|------------------|-------------------|
G|------------------|-----5--4--2-------|
D|------------------|--------------3--4-|
A|----------2--3--4-|--5----------------|
E|------------------|-------------------|
 
(Repete até o Fade)
Acordes para:
    Composição: John Lennon / Paul McCartneyColaboração e revisão:
    • Pedro Arantes
    • Felipe Abreu

    0 comentários

      mostrar mais comentários

      Conseguiu tocar?

      9tocaram0ainda não

      Grave um vídeo tocando Run For Your Life e mande pra gente!

      00:00 / 00:00
      outros vídeos desta música
      repetirqualidadeautomática
      Outro vídeos desta música
        00:00 / 00:00
        automática
        OK