Something

The Beatles

Composição de: George Harrison
tom: C
Parte 1 de 8
E|-----------------------------------------------------|
B|--------8-------------8b10-8b10r8--------------------|
G|----7/9---9~------7h9-------------9~-----------------|
D|-----------------------------------------------------|
A|-----------------------------------------------------|
E|-----------------------------------------------------|

Parte 2 de 8
E|-----------------------------------------------------|
B|-----8h10-8-------13-13-b15r13-b17r15-13-------------|
G|-7h9--------12/15-------------------------14~--------|
D|-----------------------------------------------------|
A|-----------------------------------------------------|
E|-----------------------------------------------------|

Parte 3 de 8
E|-----------------------------------------------------|
B|-----13-13\------------------------------------------|
G|-/14-------------12-12\------------------------------|
D|-------------/14------\--7~--------------------------|
A|-----------------------------------------------------|
E|-----------------------------------------------------|
     
Parte 4 de 8   
E|-----------------------------------------------------|
B|-----------------------------------------------------|
G|----------11-11-b16r14-b16r14-b16r14\12--------------|
D|-9\7-9/12--------------------------------------------|
A|-----------------------------------------------------|
E|-----------------------------------------------------|

Parte 5 de 8
E|----------------10/12-11-10--------------------------|
B|-----14\-13\11---------------------------------------|
G|-12--------------------------------------------------|
D|-----------------------------------------------------|
A|-----------------------------------------------------|
E|-----------------------------------------------------|

Parte 6 de 8
E|-----------------------------------------------------|
B|-----------------------------------------------------|
G|-7b8r7b8r7b8r7p5~--7b8r7b8r7b8r7b8r7p5---------------|
D|-----------------------------------------------------|
A|-----------------------------------------------------|
E|-----------------------------------------------------|

Parte 7 de 8
E|---------------------10b12-10-8h10-8b----------------|
B|------------------8----------------------------------|
G|-7b8r7b8r7p5--7/9------------------------------------|
D|-----------------------------------------------------|
A|-----------------------------------------------------|
E|-----------------------------------------------------|

Parte 8 de 8
E|-----------------------------------------------------|
B|-10-b13r12p10-11-12--/13~----------------------------|
G|-----------------------------------------------------|
D|-----------------------------------------------------|
A|-----------------------------------------------------|
E|-----------------------------------------------------|
Página 1 / 1

Letras e título
Acordes e artista

resetar configurações
OK