Cifra Club

Aprenda

Something

The Beatles

Cifra: Completa (violão e guitarra)
Tom: G
Intro: F  Eb  G/D  C

     F            Eb  G/D C
E|------------------------------------------|
B|-10-b13r12p10-11--12--13------------------|
G|------------------------------------------|
D|------------------------------------------|
A|------------------------------------------|
E|------------------------------------------|


(Parte 1) 


 C                        C7M
   Something in the way she moves
C7                            F
   Attracts me like no other lover
D                    D7      G      Am   G/B
   Something in the way she woos me

 (passagem F - D)
E|------------|
B|------------|
G|------------|
D|------------|
A|-3---2------|
E|------------|




(Parte 2)


    Am                         Am7M
   I don't want to leave her now
         Am7                 D7(9)
   You know I believe, and how


Intro: F   Eb   G/D   C



(Parte 1 - variação):
 C                        C7M
   Something in the way she moves
C7                            F
   Attracts me like no other lover
D                    D7      G      Am   G/B
   Something in the way she woos me

 (passagem F - D)
E|------------|
B|------------|
G|------------|
D|------------|
A|-3---2------|
E|------------|


(Parte 2):
    Am                         Am7M
   I don't want to leave her now
         Am7                 D7(9)
   You know I believe, and how


Intro: F  Eb  G/D  A

  F            Eb  G/D C
E|------------------------------------------|
B|-10-b13r12p10-11--12--12/14~--------------|
G|------------------------------------------|
D|------------------------------------------|
A|------------------------------------------|
E|------------------------------------------|



A/E               A7M/E            F#m   F#m/E
   You're asking me will my love grow
             D   G        (A5   Ab5   G5   Gb5   F5   E5)
   I don't know, I don't know

A/E            A7M/E              F#m   F#m/E
   You stick around, now it may show
             D   G         (C)
   I don't know, I don't know


E|------------------------------------------|
B|------------------------------------------|
G|------------------------------------------|
D|-----------------2-0----------------------|
A|-3---2---0--------------------------------|
E|-------------3----------------------------|

(solo):
C   C7M   C7   F
D   D7   G   A   G/B
Am   Am7M   Am7   D7(9)

    C           C7M
E|------------------------------------------
B|--------8-------------8b10-b10r8----------
G|----7h9---9~------7h9------------9~-------
D|------------------------------------------
A|------------------------------------------
E|------------------------------------------

   C7                            F

E|------------------------------b12r10-8----
B|-----8/10-8-8/11-13-13-b15r13----------10~
G|-7h9--------------------------------------
D|------------------------------------------
A|------------------------------------------
E|------------------------------------------


                 C/E       D
E|------------------------------------------
B|-----13-13\-----8-8-\---------------------
G|-/14---------/9---------------------------
D|------------------------/7~---------------
A|------------------------------------------
E|------------------------------------------

         D7

E|------------------------------------------
B|---------7-7-b12r10-b12r10-b12r10---------
G|-----6/7----------------------------------
D|-9\7--------------------------------------
A|------------------------------------------
E|------------------------------------------


           G     Am       G/B
E|-----------10----------10/12-11-10--------
B|-b12r10\8--12-12p11\10--------------------
G|-----------12-----------------------------
D|------------------------------------------
A|------------------------------------------
E|------------------------------------------

   Am              Am7M

E|------------------------------------------
B|------------------------------------------
G|-7b9r7b9r7b9r7p5~--7b9r7b9r7b9r7b9r7p5---
D|------------------------------------------
A|------------------------------------------
E|------------------------------------------

   Am7              D7(9)

E|------------------10/12-10-8/10-8---------
B|----------------------------------10------
G|-7b9r7b9r7p5/9-12-------------------------
D|------------------------------------------
A|------------------------------------------
E|------------------------------------------


   F             Eb G/D C
E|------------------------------------------
B|-10-b13r12p10-11-12--13~------------------
G|------------------------------------------
D|------------------------------------------
A|------------------------------------------
E|------------------------------------------



Intro: F  Eb  G/D  C


 C                        C7M
   Something in the way she moves
C7                            F
   Attracts me like no other lover
D                    D7      G      Am   G/B
   Something in the way she woos me

 (passagem F - D)
E|------------|
B|------------|
G|------------|
D|------------|
A|-3---2------|
E|------------|

Segunda Parte:
      Am                        Am7M
   I don't want to leave her now
         Am7                D7(9)
   You know I believe, and how


Intro: F  Eb  G/D  A
                          
E|------------------------------------16-15-14--|
B|-10-b13r12p10-11--12--12/14~-----14-----------|
G|----------------------------------------------|

Intro - variação final: F  Eb  G/D  C

    F             Eb G/D C
E|------------------------------------------|
B|-10-b13r12p10-11-12--13-------------------|
G|---------------------12-------------------|
D|---------------------14-------------------|
A|------------------------------------------|
E|------------------------------------------|
Composição de George Harrison
Colaboração e revisão:
  • Paulo Cecchini
1.526 exibições
  • Simplificar cifra
    • ½ Tom
    • A
    • Bb
    • B
    • C
    • Db
    • D
    • Eb
    • E
    • F
    • F#
    • G
    • Ab
  • Adicionar à lista

    0 comentários

    Mostrar mais comentários
    00:00 / 00:00
    outros vídeos desta música
    repetir qualidade Automático
    Outros vídeos desta música
    00:00 / 00:00
    Automático

    Cifra Club Pro

    Aproveite o Cifra Club com benefícios exclusivos e sem anúncios
    7 dias grátis
    Cifra Club Pro
    Aproveite o Cifra Club com benefícios exclusivos e sem anúncios
    7 dias grátis
    OK