Cifra Club

The Long And Winding Road

The Beatles

Cifra: Principal (violão e guitarra)
tom: Eb (forma dos acordes no tom de D) Capotraste na 1ª casa
[Primeira Parte] 

     Bm                   G/A
The long and winding road
      D     D/C      G
That leads to your door
      F#m7  Bm       Bm/A
Will never disappear
Em7                 A7       D7 (Frase 1)
    I've seen that road before
G    F#m7    Bm           Bm/A 
  It always leads me here
Em7         A7      D
   Lead me to your door

[TAB - Primeira parte]

Parte 1 De 6
   Bm                G/A
E|------------------------------------------|
B|-2-3-----2---------3---3-3--3-3-----------|
G|-------------2-----4---4-4--4-4-----------|
D|-------4-------4---5---5-5--5-5-----------|
A|-----2-----2-----------0-0--0-0-----------|
E|------------------------------------------|

Parte 2 De 6
   D        D/C     G   
E|-2---2----2---2---------------------------|
B|-3---3----3---3---0---0---------------0---|
G|-2-2---2----2---2-0---0---0---0-------0---|
D|-0----------------0-0-----4---0---0---0---|
A|----------3-----------------------2-------|
E|------------------3-----3---3---3---3---3-|

Parte 3 De 6
  F#m7     Bm      Bm/A    Em7      A7
E|------------------------------------------|
B|-2---2---2---2---2---2---0---0----2---2---|
G|-2---2---3---3---3---3---0---0----0---0---|
D|-2-2---2-4-4---4---4---4-0-0---0--2-2---2-|
A|---------2-------0----------------0-------|
E|-2-----------------------0----------------|

Parte 4 De 6
   D7   (Frase 1)     G  
E|-2-----2---3---5--------------------------|
B|-1-----1---0---3----0----0----------------|
G|-2-----2---4---5----0----0----------------|
D|-0--0----0---0---0--0--0----0-------------|
A|------------------------------------------|
E|--------------------3---------------------|

Parte 5 De 6
  F#m7     Bm      Bm/A    Em7      A7
E|------------------------------------------|
B|-2---2---2---2---2---2---0---0----2---2---|
G|-2---2---3---3---3---3---0---0----0---0---|
D|-2-2---2-4-4---4---4---4-0-0---0--2-2---2-|
A|---------2-------0----------------0-------|
E|-2-----------------------0----------------|

Parte 6 De 6
   D     
E|-2-----2-----2-----2----------------------|
B|-3-----3-----3-----3----------------------|
G|-2--2-----2-----2-----2-------------------|
D|-0----------------------------------------|
A|------------------------------------------|
E|------------------------------------------|


[Segunda Parte] 

     Bm                  G/A
The wild and windy night
          D     D/C    G
That the rain washed away
     F#m7   Bm           Bm/A
Has left a pool of tears
Em7        A7      D7 (Frase 1)
   Crying for the day
G      F#m7      Bm           Bm/A 
  Why leave me standing here?
Em7         A7      D
   Let me know the way

[TAB - Segunda parte]

Parte 1 De 6
     Bm            G/A
E|------------------------------------------|
B|---3--2----------3---3-3--3-3-------------|
G|---4----2--------4---4-4--4-4-------------|
D|----------4------5---5-5--5-5-------------|
A|---2-----------------0-0--0-0-------------|
E|------------------------------------------|

Parte 2 De 6
   D        D/C     G   
E|-2---2----2---2---------------------------|
B|-3---3----3---3---0---0---------------0---|
G|-2-2---2----2---2-0---0---0---0-------0---|
D|-0----------------0-0-----4---0---0---0---|
A|----------3-----------------------2-------|
E|------------------3-----3---3---3---3---3-|

Parte 3 De 6
  F#m7     Bm      Bm/A    Em7      A7
E|------------------------------------------|
B|-2---2---3---3---3---3---0---0----2---2---|
G|-2---2---4---4---4---4---0---0----0---0---|
D|-2-2---2-4-4---4---4---4-0-0---0--2-2---2-|
A|---------2-------0----------------0-------|
E|-2-----------------------0----------------|

Parte 4 De 6
   D7   (Frase 1)     G  
E|-2-----2---3---5--------------------------|
B|-1-----1---0---3----0----0----------------|
G|-2-----2---4---5----0----0----------------|
D|-0--0----0---0---0--0--0----0-------------|
A|------------------------------------------|
E|--------------------3---------------------|

Parte 5 De 6
  F#m7     Bm      Bm/A    Em7      A7
E|------------------------------------------|
B|-2---2---3---3---3---3---0---0----2---2---|
G|-2---2---4---4---4---4---0---0----0---0---|
D|-2-2---2-4-4---4---4---4-0-0---0--2-2---2-|
A|---------2-------0----------------0-------|
E|-2-----------------------0----------------|

Parte 6 De 6
   D     
E|-2-----2-----2-----2----------------------|
B|-3-----3-----3-----3----------------------|
G|-2--2-----2-----2-----2-------------------|
D|-0----------------------------------------|
A|------------------------------------------|
E|------------------------------------------|


[Terceira Parte] 

 D/F#            G
Many times I've been alone
     F#m7             Em7  A7
And many times I've cried
D              G
Anyway you've never known
     F#m7             Em7  A7
The many ways I've tried

[TAB - Terceira parte]

Parte 1 De 2
   D/F#     G        F#m7     Em7  A7  
E|------------------------------------------|
B|-3---3----0---0----2---2----0----2--------|
G|-2---2----0---0----2---2----0----0--------|
D|-0-0---0----0---0----2---2----0-----2-----|
A|---------------------------------0--------|
E|-2--------3--------2--------0-------------|

Parte 2 De 2
   D        G        F#m7     Em7  A7     
E|-2---2------------------------------------|
B|-3---3----0---0----2---2----0----2--------|
G|-2-2---2--0---0----2---2----0----0--------|
D|-0----------0---0----2---2----0-----2-----|
A|---------------------------------0--------|
E|----------3--------2--------0-------------|


[Quarta Parte] 

      Bm                    G/A
But still they lead me back
        D    D/C      G
To the long winding road
     F#m7     Bm          Bm/A
You left me standing here
Em7        A7         D7 (Frase)
   A long long time ago
G        F#m7     Bm          Bm/A
  Don't leave me waiting here
Em7         A7      D
   Lead me to your door

[Instrumental]

D  G  F#m7  Em7  A7  
D  (Frase 2)

[TAB - Instrumental]

Parte 1 De 2
   D/F#     G        F#m7     Em7  A7  
E|------------------------------------------|
B|-3---3----0---0----2---2----0----2--------|
G|-2---2----0---0----2---2----0----0--------|
D|-0-0---0----0---0----2---2----0-----2-----|
A|---------------------------------0--------|
E|-2--------3--------2--------0-------------|

Parte 2 De 2
   D        G        F#m7     Em7  A7     
E|-2---2------------------------------------|
B|-3---3----0---0----2---2----0----2--------|
G|-2-2---2--0---0----2---2----0----0--------|
D|-0----------0---0----2---2----0-----2-----|
A|---------------------------------0--------|
E|----------3--------2--------0-------------|


[Quarta Parte] 

      Bm                    G/A
But still they lead me back
        D    D/C      G
To the long winding road
     F#m7     Bm          Bm/A
You left me standing here
Em7        A7         D7 (Frase)
   A long long time ago
G        F#m7     Bm          Bm/A
  Don't leave me waiting here
Em7         A7      D
   Lead me to your door
G/A                 D
    Yeah yeah yeah yeah

[TAB - Quarta parte]

Parte 1 De 6
     Bm            G/A
E|------------------------------------------|
B|---3--2----------3---3-3--3-3-------------|
G|---4----2--------4---4-4--4-4-------------|
D|----------4------5---5-5--5-5-------------|
A|---2-----------------0-0--0-0-------------|
E|------------------------------------------|

Parte 2 De 6
   D        D/C     G   
E|-2---2----2---2---------------------------|
B|-3---3----3---3---0---0---------------0---|
G|-2-2---2----2---2-0---0---0---0-------0---|
D|-0----------------0-0-----4---0---0---0---|
A|----------3-----------------------2-------|
E|------------------3-----3---3---3---3---3-|

Parte 3 De 6
  F#m7     Bm      Bm/A    Em7      A7
E|------------------------------------------|
B|-2---2---3---3---3---3---0---0----2---2---|
G|-2---2---4---4---4---4---0---0----0---0---|
D|-2-2---2-4-4---4---4---4-0-0---0--2-2---2-|
A|---------2-------0----------------0-------|
E|-2-----------------------0----------------|

Parte 4 De 6
   D7   (Frase 1)     G  
E|-2-----2---3---5--------------------------|
B|-1-----1---0---3----0----0----------------|
G|-2-----2---4---5----0----0----------------|
D|-0--0----0---0---0--0--0----0-------------|
A|------------------------------------------|
E|--------------------3---------------------|

Parte 5 De 6
  F#m7     Bm      Bm/A    Em7      A7
E|------------------------------------------|
B|-2---2---3---3---3---3---0---0----2---2---|
G|-2---2---4---4---4---4---0---0----0---0---|
D|-2-2---2-4-4---4---4---4-0-0---0--2-2---2-|
A|---------2-------0----------------0-------|
E|-2-----------------------0----------------|

Parte 6 De 6Variação
   D            G/A           D
E|----------------------------2-------------|
B|-3--2---------3--3-3--3-3---3-------------|
G|-2-----2------4--4-4--4-4---2-------------|
D|-0--------4---5--5-5--5-5---0-------------|
A|-----------------0-0--0-0-----------------|
E|------------------------------------------|


00:00 / 00:00
Outros vídeos desta música
Repetir
Outros vídeos desta música
Composição de John Lennon / Paul McCartney
Colaboração e revisão:
207.067 exibições
  • Simplificar cifra
    • ½ Tom
    • A
    • Bb
    • B
    • C
    • Db
    • D
    • Eb
    • E
    • F
    • F#
    • G
    • Ab
  • Adicionar à lista

    0 comentários

    Ver todos os comentários

    Conseguiu tocar?

    21 Tocaram 6 Ainda não

    Grave um vídeo tocando The Long And Winding Road e nos envie!

    Entre para oCifra Club PRO

    Tenha acesso a benefícios exclusivos no App e no Site

    • Chega de anúncios

    • Prioridade de compra em lançamentos

    • Mais recursos no app do Afinador

    • Atendimento Prioritário

    • Descontos nos produtos Cifra Club

    • Ajude a produzir mais conteúdo

    00:00 / 00:00
    Capítulos
    • Tocando a Música
    • Acordes Primeira Parte
    • Tocando Primeira Parte
    • Ensinando Primeira Parte
    • Tocando Segunda Parte
    • Ensinando Segunda Parte
    • Tocando Terceira Parte
    • Ensinando Terceira Parte
    • Acordes Parte Instrumental
    • Tocando Instrumental
    • Ensinando Instrumental
    • Tocando Quarta Parte - Final
    • Ensinando Quarta Parte
    • Encerramento

    Cifra Club Pro

    Aproveite o Cifra Club com benefícios exclusivos e sem anúncios
    Cifra Club Pro
    Aproveite o Cifra Club com benefícios exclusivos e sem anúncios
    OK