Cifra Club

The Long And Winding Road

The Beatles

Tab de baixo: Principal
           A
        the   long and...            that..         to your...            will never...
|----------|---------------|---------------|------------------|--------|----------------|
|----------|---------------|---------------|------------------|--------|----------------|
|----------|---------------|---------------|--6-----4---------|--------|----------------|
|----------|---------------|--6--6---6--6--|------------------|--4-----|--4-----3-------|

            I've seen...                        it always..               lead me...
|--------|---------------|-------------------|-------------|--------|-----------------|
|--------|---------------|-----------8---11--|-------------|--------|-----------------|
|--3-----|---------------|--6---1O-----------|--11-----1O--|--------|-----------------|
|--------|--1---------6--|-------------------|-------------|--8-----|--1-----6--------|

|--------|
|--------|
|--6-----|
|--------|

B %
   wild and...            that the      washed                has left...
   still they...          to the..      winding             you left...
|-----------------|---------------|-------------|--------|------------------|--------|
|*--1O------------|---------------|-------------|--------|------------------|--------|
|*----------------|---------------|--6-----4----|--------|------------------|--3-----|
|-----------------|--6--6---6--6--|-------------|--4-----|--4-----3---------|--------|

     crying for...                              why leave...
     a long...                                  don't leave...           TO CODA
|-------------------|-------------------|----------------------|--------|
|-------------------|-----------8---11--|----------------------|--------|
|-------------------|--6---1O-----------|--11-------------1O---|--------|
|--1-----6----------|-------------------|----------------------|--8-----|

      let me...
          lead me...
|---------------------|----------|
|---------------------|----------|
|---------------------|--6-------|
|--1-------------6----|----------|

C
1________________
   many times...    many times...     anyway...     many ways...
|----------------|-----------------|-------------|------------------|
|--8-----6-------|--5--------------|--8-----6----|--5-----------8--*|
|----------------|--------8--------|-------------|--------8--------*|
|----------------|--------------6--|-------------|------------------|

2___________________
|-------------------|---------------------|-----------------------|-----------------------|
|--8---8---6-----6--|--5-----5---------8--|--8-----8-----6-----6--|--5-----5-----------8--|
|-------------------|------------8--------|-----------------------|--------------8--------|
|-------------------|---------------------|-----------------------|-----------------------|

CODA
     lead me...       door        yeah yeah yeah yeah
|------------------|---------|--------------------------|--------|
|------------------|---------|--------------------------|--------|
|------------1-----|--6------|--------------------------|--6-----|
|--1---------------|---------|--6---6-----6---6---------|--------|



_______________________________________________________
Contribuição: valdir felix junior(paulislivefaclube@ig.com.br)
00:00 / 00:00
Outros vídeos desta música
Repetir
Outros vídeos desta música
Composição de John Lennon / Paul McCartney
5.395 exibições

0 comentários

Ver todos os comentários

Conseguiu tocar?

0 Tocaram 0 Ainda não

Grave um vídeo tocando The Long And Winding Road e nos envie!

Entre para oCifra Club PRO

Tenha acesso a benefícios exclusivos no App e no Site

  • Chega de anúncios

  • Prioridade de compra em lançamentos

  • Mais recursos no app do Afinador

  • Atendimento Prioritário

  • Descontos nos produtos Cifra Club

  • Ajude a produzir mais conteúdo

00:00 / 00:00

Cifra Club Pro

Aproveite o Cifra Club com benefícios exclusivos e sem anúncios
Cifra Club Pro
Aproveite o Cifra Club com benefícios exclusivos e sem anúncios
OK