Cifra Club

Where Have You Been All My Life

The Beatles

Cifra: Principal (violão e guitarra)
exibições 7.219
Tom: F
[Intro]

E|---------------------------------|
B|---------------------------------|
G|---------------------------------|
D|-3---3--------3--3---------------|
A|--------3-----------3-4-5--------|
E|---------------------------------|

F                                                   Dm
Since we kiss I never knew the thrills I could be tasted
Bb                                                       C
Since we' ve kissed I never knew the years that I am wasting

But now I know
F
I was waiting for you to come back,
Dm
I was waiting girl, won't you please tell me why

              Bb
That's took a long to begin
C                                    F
Darling where have you been all my life
C
Oh don't you know that

F                                                   Dm
Till we touch I never knew the touch was of revealing
Bb                                                   C
Until we touch I never knew my heart was really beating

But now I know

F
I was waiting for you to come back,

      Dm
I was waiting girl, won't you please tell me why

              Bb
That's took a long to begin
C                                    F
Darling where have you been all my life

oh where you been, where you been

[Solo]  F Dm Bb C

E|----6-5-----------6--5-------6--5-------6--5-------6--5|
B|---------6-------------6-----------6----------6--------|
G|-5-------------5-----------5----------5----------5-----|
D|-------------------------------------------------------|
A|-------------------------------------------------------|
E|-------------------------------------------------------|

E|----12--10------12-12-12-10|
B|----10--10------10-10-10-10|
G|---------------------------|
D|-12------------------------|
A|---------------------------|
E|---------------------------|

E|-8--6-------------8--6-------8--6--8--6----------10--8-8--------8|
B|-------6-------6--------6----6--6--6--6-------8------8-8--------8|
G|-----------------------------------------------------------------|
D|-----------------------------------------------------------------|
A|-----------------------------------------------------------------|
E|-----------------------------------------------------------------|

C
Now don't you know that
F
I was waiting for you to come back,
      Dm
I was waiting girl, won't you please tell me why
              Bb
That's took a long to begin
C                                    F
Darling where have you been all my life

F
Where you've been, where you've been
                 Dm
When I was feeling blue

Bb
Where you've been, where you've been
C
When I was nedding you

F                                 C
Where you've been, where you've been
F                                 C
Where you've been, Darling where you've been
F
Where you've been all my life
Acordes para:
    Composição: Ted Nugent Colaboração e revisão:

    0 comentários

    mostrar mais comentários

    Conseguiu tocar?

    1 tocaram 0 ainda não

    Grave um vídeo tocando Where Have You Been All My Life e mande pra gente!

    00:00 / 00:00
    outros vídeos desta música
    repetir qualidade Automático
    Outros vídeos desta música
    00:00 / 00:00
    Automático
    OK