Cifra Club

Aprenda

While My Guitar Gently Weeps

The Beatles

Tab de baixo: Principal
Quer fazer aulas de música com a gente? Responda essas perguntas
e nos ajude nesse projeto! →
intro
                                                                                I look
|--------|--------|--------|--------|--------|--------|--------|-----------------------|
|--7-----|--5-----|--4-----|--3-----|--7-----|--5-----|--------|-----------------------|
|--------|--------|--------|--------|--------|--------|--5-----|--7-----7--7--7--7--7--| 
|--------|--------|--------|--------|--------|--------|--------|-----------------------|

A
       at...             see...            there...
       at...                         
       at...             see...            there...     
|---(9)--(9)--(9)-|---(7)--(7)--(7)--|---(7)--(7)--(7)--|---(5)--(5)--(5)------------|
|*-7--7--7--7-----|--5--5--5--5------|--4--4--4--4------|--3--3--3--3---------5---7--|
|*----------------|------------------|------------------|----------------------------|
|-----------------|------------------|------------------|----------------------------|

   while...        gently...                                                     I look...
   while...        gently...                                                     with...
   while...        gently...                                                       
|--------------|--------------|--------------------------|-----------------------------------|
|--7--7--7--7--|--5--5-----5--|--------------------------|-----------------(6)-----(9)-------|
|--------------|--------------|--5--5--5--5-----5--5--5--|--7--7--7--7--7-----7--7-----7--7--|
|--------------|--------------|--------------------------|-----------------------------------|

B
    at the...     and...  
        mistake     we...
   I look...            
|--(9)-----(9)-|--(7)---(7)----|--(7)--(7)--(7)----|--(5)--(5)--(5)----------(7)--(7)--(9)---|
|--7--7-----7--|--5--5-----5---|--4--4--4--4-------|--3--3--(4)--3--3--3------(5)--(5)--(7)--|
|--------------|---------------|-------------------|-----------------------------------------|
|--------------|---------------|-------------------|-----------------------------------------|

    still...                     gently...                                        
    still...                     gently...
    still...                     gently...                             TO CODA
|--(9)--(9)--(9)---|---(7)--(7)--(7)------------------|
|---(7)--(7)--(7)--|--(5)--(5)--(5)--(5)--(5)---------|
|------------------|---------------------------7---5--|
|------------------|----------------------------------|

1__________________________________________________
|--------------------------|-----------------------|
|--------------------------|--------------6--------|
|--3-----3-----3--2--3--5--|--7-----7--9--------7--|
|--------------------------|-----------------------|

C %
         I don't...       why                          nobody...     you
         I don't...       how                          you...
|----------------------|------------------------|-----------------|------------------------|
|--7-----7-------------|-----------4-H-6-----9--|--7---7----------|-----------4-H-6-----9--|
|------------2-H-4--7--|--4-----7---------------|----------9---2--|--4-----7---------------|
|----------------------|------------------------|-----------------|------------------------|

         how...
         you...
|-----------------------|--------------------|---------------------------|
|--------------4--------|--------------------|---------------------------|
|--2-----2--------------|--2-----4--5-----6--|--7--7------7--9--9-----9--|
|--------------------2--|--------------------|---------------------------|

                                 I don't...
                                 I don't...
|-----------------------|----------------------|----------------------|
|--6--6-----6--7-----9--|--7-----7-------------|-----------4/6-----9--|
|-----------------------|--------------2/4--7--|--4-----7-------------|
|-----------------------|----------------------|----------------------|

         someone...                                     they...
         you were...                                    no one...
|-----------------------|----------------------|-----------------------|
|--7-----7--------------|-----------4/6-----9--|--------------4--------|
|--------------9-----2--|--4-----7-------------|--2-----2--------------|
|-----------------------|----------------------|--------------------2--|

                                                                 I look..
                                                                 I look..
|---------------------|--------------------------|-----------------------|
|---------------------|--------------------------|--6--6-----6---7---9--*|
|--2-----4---5-----6--|--7--7-----7--9--9-----9--|----------------------*|
|---------------------|--------------------------|-----------------------|

2_________________________________________________
|-------------------------|-----------------------|
|-------------------------|--------------6--------|
|--3-----3--2--3-----5/7--|--7-----7--9--------7--|
|-------------------------|-----------------------|

D
|--9--9--9-----9--9---|--7--7--7---|--7--7--7---|--5--5-----5--5--7--7--9---|--9--9--9---|
|---7--7--7-----7--7--|---5--5--5--|---4--4--4--|---3--3-----3--3--5--5--7--|---7--7--7--|
|---------------------|------------|------------|---------------------------|------------|
|---------------------|------------|------------|---------------------------|------------|

|--7--7--7---|----------------------|--------------9--------|-----------|-----------|
|---5--5--5--|--7---7---7---7---7---|-----------------------|--7--7--7--|--5--5--5--|
|------------|---5---5---5---5---5--|--7--7--7--7-----7--7--|-----------|-----------|
|------------|----------------------|-----------------------|-----------|-----------|

|-----------|-------------------------|-----------|-----------------------|
|--4--4--4--|--3--3--3-----3/5--5--5--|--7--7--7--|--5--5--5-----3--2-----|
|-----------|-------------------------|-----------|--------------------5--|
|-----------|-------------------------|-----------|-----------------------|

|------------------------|-----------------------|
|------------------------|--------------6--------|
|--3--3--3--2--3/5--5/7--|--7--7--7--9--------7--|
|------------------------|-----------------------|

CODA
|-------------------------|--------------------------|
|-------------------------|--------------6--------6--|
|--3--3--3-----3--2--3/5--|--7--7--7--9-----7--9-----|
|-------------------------|--------------------------|

E
|-----------9--|-----------9--|-----------7--------|-----------5--|--9--9--9--9--9--|
|--7--7--7-----|--5--5--5-----|--4--4--4--------4--|--3--3--3-----|---7--7--7-------|
|--------------|--------------|--------------------|--------------|-----------------|
|--------------|--------------|--------------------|--------------|-----------------|

|--7--7--7--7--7--|------------------|-----------9--9--9--------|-----------9--|
|---5--5--5-------|--7---7---7---7---|--------------------------|--7--7--7-----|
|-----------------|---5---5---5---5--|--7--7--7-----------7--7--|--------------|
|-----------------|------------------|--------------------------|--------------|

|-----------9--|-----------7--------|-----------7--|--9--9--9--9---|--7--7--7--7---|
|--5--5--5-----|--4--4--4--------4--|--3--3--3-----|---7--7--7--7--|---5--5--5--5--|
|--------------|--------------------|--------------|---------------|---------------|
|--------------|--------------------|--------------|---------------|---------------|

|--------------------------|-----------------------|
|--------------------------|-----------6--------6--|
|--3--3--3--2--3--5-----7--|--7--7--9-----7--9-----|
|--------------------------|-----------------------|

F
|-----------9--|-----------9--|-----------7--------|-----------7-----7--5--|
|--7--7--7-----|--5--5--5-----|--4--4--4--------4--|--3--3--3--------------|
|--------------|--------------|--------------------|-----------------------|
|--------------|--------------|--------------------|-----------------------|

|-------------9--|-----------7--|----------------------|-----------------------|
|--5/7--7--7-----|--5--5--5-----|----------------------|--------------------6--|
|----------------|--------------|--5--5--5--5--5--5/7--|--7--7--7--9-----9-----|
|----------------|--------------|----------------------|-----------------------|

|-----------9--|-----------9--|-----7--------7--------|-----7-----7-----7--5--|
|--7--7--7-----|--5--5--5-----|--4--------4--------4--|--3--------------------|
|--------------|--------------|-----------------------|-----------------------|
|--------------|--------------|-----------------------|-----------------------|

|--------------|--------------------------|--------------------------|-----------------------|
|--7--7--7--7--|--5--5--5--5--------------|--------------------------|-----------------6-----|
|--------------|-----------------5/7---5--|--3-----3--3-----5-----5--|--7--7--7--7--------7--|
|--------------|--------------------------|--------------------------|-----------------------|

paulislivefaclube@ig.com.br

_______________________________________________________
Contribuição: valdir felix junior(paulislivefaclube@ig.com.br)
Composição de George Harrison
13.617 exibições

0 comentários

Ver todos os comentários

Conseguiu tocar?

4 Tocaram 0 Ainda não

Grave um vídeo tocando While My Guitar Gently Weeps e nos envie!

00:00 / 00:00
Outros vídeos desta música
Repetir Qualidade Automático
Outros vídeos desta música
00:00 / 00:00
Automático

Cifra Club Pro

Aproveite o Cifra Club com benefícios exclusivos e sem anúncios
Cifra Club Pro
Aproveite o Cifra Club com benefícios exclusivos e sem anúncios
OK