Cifra Club

Aprenda

With A little Help From My Friends

The Beatles

Tab de baixo: Principal
A verse 1
   what would you think if I sang    out of tune would you stand     up and walk out on me

|---9-------------------8--------|-------------------------------|---11--------------------|
|--------------------------------|--11---------------------------|----------------9--------|
|--------------------------------|----------------9--------------|-------------------------|
|--------------------------------|-------------------------------|-------------------------|

                         lend me your ears and I'll sing   you a song and I'll try

|--9-----11--9--6-----|---------------------------------|--------------9-----------|
|------------------9--|-------------------9-------------|---------9/11-------------|
|---------------------|--7------------------------------|--9-----------------------|
|---------------------|---------------------------------|--------------------------|

   not to sing out of key             oh     I get by

|------------------------|-----8-H-9--8-H-9--8-H-9---|
|-------------9----------|---------------------------|
|--9---------------------|--7------------------------|
|------------------------|---------------------------|

B chorus 1
   with a little help from my friends         mmm I get high    
|-------------------------------------|----------------------|
|---------------------7-----7---------|----------------------|
|--5------5----------------------6----|---7---7--7----7--4---|
|-------------------------------------|----------------------|

   with a little help from my friends         mmm     gonna try
|-------------------------------------|------------------------|
|---------------------7-----7---------|------------------------|
|--5------5-------------------6-------|---7---5---4------------|
|-------------------------------------|---------------7--------|

   with a little help from my friends
|-------------------------------------|-----9--8---6---------|-----|-----|
|-------------------------------------|----------------9--7--|--9--|-----|
|---------4-----------7-----4-----4---|--7-------------------|-----|-----|
|--5----------------------------------|----------------------|-----|-----|

C verse 2
   what do I do when my love     is away? does it wor___ ry you to be alone?
|----------------------------|------13----11---9-----|----------------------|
|--------------9-------------|--------------------11-|--------------9-------|
|--7-------------------------|--9--------------------|--9---------------6---|
|----------------------------|-----------------------|----------------------|

                    how do I feel by the end       of the day? are you sad
|-----9---6-----|----------------------------|-------------13---11--9------|
|------------9--|----------------9-----------|-------------------------11--|
|--7------------|---7------------------------|---9-------------------------|
|---------------|----------------------------|-----------------------------|

   because you're on your own?              no     I get by
|------------------------------|-----8-H-9--8-H-9--8-H-9-----|
|------------------9-----------|-----------------------------|
|-9------------------------6---|--7-----------------------4--|
|------------------------------|-----------------------------|

D chorus 2
    with a little help from my friends      mm I get high     with a little help from my friends
|--------------------------------------|------------------|-------------------------------------|
|----------------------7-----7---------|------------------|----------------------7-----7--------|
|---5------5-------5-------------6-----|--7--7--7--7--4---|---5------5--------------------6-----|
|--------------------------------------|------------------|-------------------------------------|

       mm   gonna    try     with a little help from my friends             do you need
|-----------------------|----------------------------------------|-----------------------|
|-----------------------|--7-------------------------------------|-----------------------|
|--7--7---7--(7)--7--4--|-----------4-----------7----4---4-------|--7--7----7------7-----|
|-----------------------|----------------------------------------|-----------------------|

% E H bridge 1&2
    anybo__________dy?          I     need somebody to love           could it be
|---6--4--3-----|-----------------|--------------------------|--------------------|
|------------6--|--4-----2--------|--------------------------|--7--7--7-------7---|
|-4-------------|-----------6--4--|---7----7--5------5--5----|--------------------|
|---------------|-----------------|--------------------------|--------------------|

                                                         TO CODA       
   anybo________________dy?           I   want somebody to love 
|-----6-----4--3-----|-----------------|-------------------------|----------------|
|-----------------6--|--4-----2--------|-------------------------|--7--7--7--7----|
|--4-----------------|-----------6--4--|--7----7---5-----5--(5)--|----7--7--7--7--|
|--------------------|-----------------|-------------------------|----------------|

F verse 3
   would you believe in a love      at first sight? yes I'm cer__ 
|------------------------------|--------------------9---------|
|-------------------9----------|-------------9---11-----------|
|--7---------------------------|--9---------------------------|
|------------------------------|------------------------------|

   tain that it happens all the time                        what do you see when you turn
|-----------------------------------|-----11--9---------|---------------------------------|
|--------------------9--------------|------------11--9--|------------------9--------------|
|--9--------------------------------|--7----------------|---7-----------------------------|
|-----------------------------------|-------------------|---------------------------------|

   out the light? I can't tell    you but I know it's mine             oh     I get by
|------------------9----------|---------------------------|-----8-H-9--8-H-9--8-H-9-------|
|----------9--11--------------|-----------------9---------|-------------------------------|
|--9--------------------------|---9-----------------------|--7-----------------------(4)--|
|-----------------------------|---------------------------|-------------------------------|

G chorus 3
   with a little help from my friends        mm     I get high
|------------------------------------|-------------------------|
|---------------------7-----7--------|-------------------------|
|--5------5--------------------6-----|--7--7-----7-----7--4----|
|------------------------------------|-------------------------|

   with a little help from my friends            ooh I'm   gonna try
|-------------------------------------|-----------------------------|
|---------------------7-----7---------|-----------------------------|
|--5------5--------------------5------|--7-----5-----4--------------|
|-------------------------------------|--------------------2--------|

                                                       CODA
   with a little help from my friends                        oh I get by
|-------------------------------------|--------------|-----------------|
|-------------------------------------|--7--7--7--7--|--7--7--7--7-----|
|---------4-----------7----4----(4)---|--------------|--------------4--|
|--5----------------------------------|--------------|-----------------|

J chorus 4
   with a little help from my friends          mm gonna try
|-------------------------------------|-----9--8-H9--8-H-9---------------|
|--------------------7--------7-------|----------------------------------|
|--5------5------------------------6--|--7-------------------------(4)---|
|-------------------------------------|----------------------------------|

   with a little help from my friends          ooh  I   get by
|-------------------------------------|-----7-----6-------------|
|---------------------7------7--------|-----------------9--(5)--|
|--5------5----------------------6----|--7----------------------|
|-------------------------------------|-------------------------|

   with a little help from my friends        yes I get by   with a little help from my friends
|-------------------------------------|-------------------|-----------------------------------|
|--7----------------------------------|-------------------|-----------------------------------|
|---------4-----------7------4----(4)-|--7--7--7--7--(O)--|-5---------------------------------|
|-------------------------------------|-------------------|-----------------------------------|

   with a little help from my friends
|------------------------------------|----------------------|-----------------------|-----|
|--7---------------------------------|--5-----5-----5-----5-|--7-----7-----7-----7--|--9--|
|------------------------------------|-----5-----------5----|------7-----------7----|-----|
|------------------------------------|----------------------|-----------------------|-----|



_______________________________________________________
Contribuição: valdir felix junior(paulislivefaclube@ig.com.br)
Composição de John Lennon / Paul McCartney
11.524 exibições

0 comentários

Ver todos os comentários
00:00 / 00:00
Outros vídeos desta música
Repetir Qualidade Automático
Outros vídeos desta música
00:00 / 00:00
Automático

Cifra Club Pro

Aproveite o Cifra Club com benefícios exclusivos e sem anúncios
Cifra Club Pro
Aproveite o Cifra Club com benefícios exclusivos e sem anúncios
OK