Notificações Amigos pendentes

      The Beatles

      Yesterday

      49.613 exibições
      Tom: F
      Dizem que Paul baixou em 1 tom a afinação do seu violão para poder cantar mais "confortavelmente", 
      tocando assim em sol. Estou pondo a tab em sol e uma em fá. Aí depende da sua voz o tem que fica melhor!
       É só tocar a base do violão com a letra.
      
      G:
      
      
       G
        e|----3-- 3---3-- ----3-- 3---3--|----3-- 3---3-- ----3-- 3---3--|
        B|----3---3---3-------3---3---3--|----3---3---3-------3---3---3--|
        G|----0---0---0-------0---0---0--|----0---0---0-------0---0---0--|
        D|-------------------------------|-------------------------------|
        A|-------------------------------|-------------------------------|
        E|3---------------3--------------|3---------------3--------------|
      
      
          00:05
      
                                          F#m             B7
        e|----3-- 3---3-- ----3-- 3------|----2-- 2---2-- ----2-- 2---2--|
        B|----3---3---3-------3---3------|----2---2---2-------0---0---0--|
        G|----0---0---0-------0---0------|----2---2---2-------2---2---2--|
        D|-------------------------------|-------------------------------|
        A|-------------------------------|----------------2--------------|
        E|3---------------3-----------0--|2------------------------------|
      
          Yesterday                               all my  troubles    so
                                                                  seem
      
      
          Em                      Em7     Cmaj7           D7
        e|----0-- 0---0-- ----0-- ----0--|----0-- 0---0-- ----2-- 2---2--|
        B|----0---0---0-------0-------0--|----0---0---0-------1---1---1--|
        G|----0---0---0-------0-------0--|----0---0---0-------2---2---2--|
        D|2---------------2-------0------|----------------0--------------|
        A|-------------------------------|3------------------------------|
        E|-------------------------------|-------------------------------|
      
          far     away                            Now it looks    though 
                                                              as      they're
      
      
          G                       Gmaj7   Em7             A
        e|----3-- 3---3-- ----3-- ----3--|------- ------- ----0-- 0------|
        B|----3---3---3-------3-------3--|----3---3---3-------2---2------|
        G|----0---0---0-------0-------0--|----0---0---0-------2---2------|
        D|-------------------------------|----2---2---2------------------|
        A|-------------------------------|----------------0--------------|
        E|3---------------3-------2------|0------------------------------|
      
          here    to  stay            Oh  I       believe             in
      
      
                                          00:22
      
      
          C       G
        e|0------ 3---3-- ----3-- 3---3--|----3-- 3---3-- ----3-- 3------|
        B|1-------3---3-------3---3---3--|----3---3---3-------3---3------|
        G|0-------0---0-------0---0---0--|----0---0---0-------0---0------|
        D|-------------------------------|-------------------------------|
        A|3------------------------------|-------------------------------|
        E|--------3-------3--------------|3---------------3-----------0--|
      
          yesterday                       Suddenly
      
      
      
          F#m             B7              Em                      Em7
        e|----2-- 2---2-- ----2-- 2---2--|----0-- 0---0-- ----0-- ----0--|
        B|----2---2---2-------0---0---0--|----0---0---0-------0-------0--|
        G|----2---2---2-------2---2---2--|----0---0---0-------0-------0--|
        D|-------------------------------|2---------------2-------0------|
        A|----------------2--------------|-------------------------------|
        E|2------------------------------|-------------------------------|
      
                  I'm not half  man   I   used  be
                                              to
                              the
      
      
          Cmaj7           D7              G                       Gmaj7
        e|----0-- 0---0-- ----2-- 2---2--|----3-- 3---3-- ----3-- ----3--|
        B|----0---0---0-------1---1---1--|----3---3---3-------3-------3--|
        G|----0---0---0-------2---2---2--|----0---0---0-------0-------0--|
        D|----------------2--------------|-------------------------------|
        A|3------------------------------|-------------------------------|
        E|-------------------------------|3---------------3-------2------|
      
                  there's         hanging             me              oh
                      a shadow        over
      
      
          Em7             A               C       G          
        e|------- ------- ----0-- 0------|0------ 3---3-- ----3-- -------|
        B|----3---3---3-------2---2------|1-------3---3-------3-------0--|
        G|----0---0---0-------2---2------|0-------0---0-------0-------0--|
        D|----2---2---2------------------|-------------------------------|
        A|----------------0--------------|3------------------------------|
        E|0------------------------------|--------3---------------3------|
      
          yesterday                  came suddenly 
      
          00:39
      
          F#m             B7            
        e|----2-- 2---2-- ----2-- 2---2--|0------ 2------ 3------ 2---0--|
        B|----2---2---2-------0---0---0--|-------------------------------|
        G|----2---2---2-------2---2---2--|-------------------------------|
        D|-------------------------------|2-------0----------------------|
        A|----------------2--------------|----------------3-------2------|
        E|2------------------------------|-------------------------------|
      
          Why             she             had     to      go      I   don't
      
      
      
          Am              D7              G
        e|----0-- 0---0-- ----0-- 0---0--|----3-- 3---3-- ----3-- 3------|
        B|----1---1---1-------1---1---1--|----3---3---3-------3---3------|
        G|----2---2---2-------0---0---0--|----0---0---0-------0---0------|
        D|----------------0--------------|-------------------------------|
        A|0------------------------------|-------------------------------|
        E|-------------------------------|3---------------3-----------0--|
      
              know    she wouldn't    say 
      
      
      
          F#m             B7              Em
        e|----2-- 2---2-- ----2-- 2---2--|0------ 2------ 3------ 2---0--|
        B|----2---2---2-------0---0---0--|-------------------------------|
        G|----2---2---2-------2---2---2--|-------------------------------|
        D|-------------------------------|2-------0----------------------|
        A|----------------2--------------|----------------3-------2------|
        E|2------------------------------|-------------------------------|
      
          I               said            something       wrong   now I 
        
      
      
          Am              D7              G
        e|----0-- 0---0-- ----0-- 0---0--|------- ------- ------- -------|
        B|----1---1---1-------1---1---1--|-------------------------------|
        G|----2---2---2-------2---2---2--|-------------------------------|
        D|----------------0--------------|-------------------------------|
        A|0------------------------------|-------------------------------|
        E|-------------------------------|3------------------------------|
      
          long        for yes.....ter.....day
      
          00:59
      
          G                               F#m             B7
        e|3------ 3---3-- ----3-- 3------|----2-- 2------ ----2-- 2---2--|
        B|3-------3---3-------3---3------|----2---2-----------0---0---0--|
        G|0-------0---0-------0---0------|----2---2-----------2---2---2--|
        D|-------------------------------|-------------------------------|
        A|-------------------------------|----------------2--------------|
        E|3---------------3-----------0--|2------------------------------|
      
          Yesterday                               love    such  easy
                                                      was     an
      
      
          Em                      Em7     C               D7
        e|----0-- 0---0-- ----0-- ----0--|----0-- 0---0-- ----2-- 2---2--|
        B|----0---0---0-------0-------0--|----1---1---1-------1---1---1--|
        G|----0---0---0-------0-------0--|----0---0---0-------2---2---2--|
        D|2---------------2-------0------|----------------0--------------|
        A|-------------------------------|3------------------------------|
        E|-------------------------------|-------------------------------|
          game    to  play                        now I need  a   place 
      
                                                                      to
      
      
          G                       Gmaj7   Em7             A
        e|----3-- 3---3-- ----3-- ----3--|------- ------- ----0-- 0---0--|
        B|----3---3---3-------3-------3--|----3---3---3-------2---2---2--|
        G|----0---0---0-------0-------0--|----0---0---0-------2---2---2--|
        D|-------------------------------|----2---2---2------------------|
        A|-------------------------------|----------------0--------------|
        E|3---------------3-------2------|0------------------------------|
      
          hide    away            oh      I       believe             in
      
      
                                          01:17
      
      
          C       G                       F#m             B7
        e|0------ 3---3-- ----3-- 3------|----2-- 2---2-- ----2-- 2---2--|
        B|1-------3---3-------3---3------|----2---2---2-------0---0---0--|
        G|0-------0---0-------0---0------|----2---2---2-------2---2---2--|
        D|-------------------------------|-------------------------------|
        A|3------------------------------|----------------2--------------|
        E|--------3-------------------0--|2------------------------------|
      
          yesterday                       Why             she
      
                                       
      
          Em                              Am              D7
        e|0------ 2------ 3------ 2---0--|----0-- 0---0-- ----0-- 0---0--|
        B|-------------------------------|----1---1---1-------1---1---1--|
        G|-------------------------------|----2---2---2-------2---2---2--|
        D|2-------0----------------------|----------------0--------------|
        A|----------------3-------2------|0------------------------------|
        E|-------------------------------|-------------------------------|
      
          had     to      go      I   don't           she wouldn't    say
                                         know 
      
      
          G                               F#m             B7
        e|----3-- 3---3-- ----3-- 3------|----2-- 2---2-- ----2-- 2---2--|
        B|----3---3---3-------3---3------|----2---2---2-------0---0---0--|
        G|----0---0---0------------------|----2---2---2-------2---2---2--|
        D|-------------------------------|-------------------------------|
        A|-------------------------------|----------------2--------------|
        E|3---------------3-----------0--|2------------------------------|
      
                                          I               said
      
      
      
          Em                              Am              D7
        e|0------ 2------ 3------ 2---0--|----0-- 0---0-- ----2-- 2---2--|
        B|-------------------------------|----1---1---1-------1---1---1--|
        G|-------------------------------|----2---2---2-------2---2---2--|
        D|2-------0----------------------|----------------0--------------|
        A|----------------3-------2------|0------------------------------|
        E|-------------------------------|-------------------------------|
      
          something       wrong   now I   long        for yes.....ter....
      
      
                                          01:37
      
      
          G                               G
        e|3------ ------- ------- -------|3------ 3---3-- ----3-- 3------|
        B|3------------------------------|3-------3---3-------3---3------|
        G|-------------------------------|0-------0---0-------0---0------|
        D|-------------------------------|-------------------------------|
        A|-------------------------------|-------------------------------|
        E|3------------------------------|3---------------3-----------0--|
      
          day                             Yesterday
      
      
      
          F#m             B7              Em                      Em7
        e|----2-- 2---2-- ----2-- 2---2--|----0-- 0---0-- ----0-- ----0--|
        B|----2---2---2-------0---0---0--|----0---0---0-------0-------0--|
        G|----2---2---2-------2---2---2--|----0---0---0-------0-------0--|
        D|-------------------------------|2---------------2-------0------|
        A|----------------2--------------|-------------------------------|
        E|2------------------------------|-------------------------------|
      
                  love    such  easy      game    to  play
                      was     an 
      
      
          C               D7              G                       Gmaj7
        e|----0-- 0---0-- ----2-- 2---2--|----3-- 3---3-- ----3-- ----3--|
        B|----1---1---1-------1---1---1--|----3---3---3-------3-------3--|
        G|----0---0---0-------2---2---2--|----0---0---0-------0-------0--|
        D|----------------0--------------|-------------------------------|
        A|3------------------------------|-------------------------------|
        E|-------------------------------|3---------------3-------2------|
      
                  now I need  a   place   hide    away                oh
                                      to
      
      
          Em7             A               C       G
        e|------- ------- ----0-- 0---0--|0------ 3---3-- ----3-- 3---3--|
        B|----3---3---3-------2---2---2--|1-------3---3-------3---3---3--|
        G|----0---0---0-------2---2---2--|0-------0---0-------0---0---0--|
        D|----2---2---2------------------|-------------------------------|
        A|----------------0--------------|3------------------------------|
        E|0------------------------------|--------3----------------------|
      
          I       believe             in  yesterday
      
          01:54                                      (.
      
          G               A7              C       G                                  
        e|3---3-- 3---3-- 3---3-- 3---3--|0------ 3---3-- ------- -------|
        B|3---3---3---3---2---2---2---2--|1-------3---3------------------|
        G|0---0---0---0---0---0---0---0--|0-------0---0------------------|
        D|-------------------------------|-------------------------------|
        A|----------------0--------------|3------------------------------|
        E|3------------------------------|--------3---3------------------|
      
          Mmm......       Mmmmmm.....     Mmmmmmmmm......
      
      F:
      
      
        F        
      e|---1-1-1---1-1-1---1-1-1---1-1-1--|
      b|---1-1-1---1-1-1---1-1-1---1-1-1--|
      G|---2-2-2---2-2-2---2-2-2---2-2-2--|
      E|----------------------------------|
      A|----------------------------------|
      E|-1-------1-------1-------1--------|
      
      
         F                Em7          A7               Dm        Dm  Dm7  Bb
      e|---1-1-1----1-1-----0-0-0----------0-0-0-------------1-1-1----1---1-----1-1-1-|
      b|---1-1-1----1-1-----3-3-3----------2-2-2-------------3-3-3----3---3-----3-3-3-|
      G|---2-2-2----2-2-----0-0-0----------0-0-0-------------2-2-2----2---2-----3-3-3-|
      E|--------------------------------------------------0---------0-----------------|
      A|---------------------------------0------------------------------3----1--------|
      E|-1--------1-----1-0-----------------------------------------------------------|
      
         Yesterday,             all my   trouble seemedto far away                now-
         suddenly,              I´m not  half the man  I  use to be               there´s 
         yesterday,             love was such an easy     game to play            now
      
      
      
           C7                     F          F   Em   Dm        G7        Bb F
      e|-----0-0-0------------------1-1-1-------1---0----1-1-1-----1-1-1---1--1-1----|
      b|-----1-1-1------------------1-1-1-------1---0----3-3-3-----0-0-0---3--1-1----|
      G|-----3-3-3------------------2-2-2-------2---0----2-2-2-----0-0-0---3--2-2----|
      E|-----------------------------------------------0-----------------------------|
      A|---3---------------------------------------------------------------1---------|
      E|--------------------------1-----------1---0--------------3------------1-1----|
      
        it looks as though they're here to stay     oh I   believe  in   yesterday
        a  shadow    hanging      over me           oh yestarday     came suddenly-
        I  need a place to        hide away         oh I   believe  in   yesterday- 
      
      
      
         Em7     A7        Dm Am7 Bb         Gm6       C7         F
      e|---0-0-0---0-0-0---1---0--1--1-0-------0-0-0-----0-0-0------1-1-1--1-1-1----|
      b|---3-3-3---2-2-2---3---1--3--3-3-------3-3-3-----1-1-1------1-1-1--1-1-1----|
      G|---0-0-0---0-0-0---2---0--3------------3-3-3-----3-3-3------2-2-2--2-2-2----|
      E|-------------------0---2----------------------------------------------------|
      A|---------0----------------1--------------------3----------------------------|
      E|-0-----------------------------------3--------------------1-------1-------1-|
      
         Why     she       had to go I don´t Know she  wouldn´t say 
      
      
         Em7     A7        Dm7 Am7   Bb          Gm6      C7       F
      e|---0-0-0---0-0-0---1---0-----1--1-0--------0-0-0-----0-0-0---1-1-1--1-1-1---|
      b|---3-3-3---2-2-2---3---1-----3--3-3--------3-3-3-----1-1-1---1-1-1--1-1-1---|
      G|---0-0-0---0-0-0---2---0-----3-------------3-3-3-----3-3-3---2-2-2--2-2-2---|
      E|-------------------0---2----------------------------------------------------|
      A|---------0-------------------1--------------------3-------------------------|
      E|-0---------------------------------------3-----------------1-------1--------|
         I       said      something wrong now I long for yesterda-a------a---ay
      
      
          Dm       G7       Bb F
      e|----1-1-1----1-1-1--1--1-1--|
      b|----3-3-3----0-0-0--3--1-1--|
      G|----2-2-2-----------3--2-2--|
      E|--0-------------------------|
      A|--------------------1-------|
      E|-----------3-----------1-1--|
      
          Mmm..   Mmm..    Mmmmmm.... 
      
      A letra em ordem:
      
      Yestarday, all my trouble seemed to far away
      now it looks as though they're here to saty
      oh I believe in yesterday
      
      Suddenly, I'm not half yhe man a use to be
      there´s a shadow hanging over me
      oh yesterday came suddenly
      
      Why she had to go I don't know she wouldn´t say
      I said something wrong now I long for yesterday
      
      Yesterday, love was such an easy game to play
      now I need a place to hide away
      oh I believe in yestarday
      
      Why she had to go I don't know she wouldn´t say
      I said something wrong now I long for yesterday
      
      Yesterday, love was such an easy game to play
      now I need a place to hide away
      oh I believe in yestarday
      
      Mmm..Mmmmm....Mmmmmm........
        Composição: John Lennon / Paul McCartneyColaboração e revisão:
        • .Luuiz!

        Comentários 0

        140 .
        140 cancelar
        0:00 / 0:00
        Esta versão de cifra não é usada na videoaula. Exiba a cifra correta.
        2 versões de baixo exibições contribuição e correção
        play/pausefechar subir/descer velocidade
        6ª corda E5ª corda A4ª corda D3ª corda G2ª corda B1ª corda E
          acordes
          publicidade
          fechar
          ok