Cifra Club

Aprenda

Learn Yourself

The Beautiful Girls

Cifra: Principal (violão e guitarra)
tom: C
[Intro]  Am  C  G  Am
         Am  C  G  Am
         Am  C  G  Am
         Am  C  G  Am

     Am        C       G         Am
E|-------------------------------------------|
B|---1-x-1----1-x-1----0-x-0----1-x-1--------|
G|---2-x-2----0-x-0----0-x-0----2-x-2--------| (4X)
D|---2-x-2----2-x-2----0-x-0----2-x-2--------|
A|-0---x----3---x-------------0---x--------0-|
E|-------------------3---x-------------0h3---|

[Verso]

     Am        C       G         Am
E|-------------------------------------------|
B|---1-x-1----1-x-1----0-x-0----1-x-1--------|
G|---2-x-2----0-x-0----0-x-0----2-x-2--------| 
D|---2-x-2----2-x-2----0-x-0----2-x-2--------|
A|-0---x----3---x-------------0---x--------0-|
E|-------------------3---x-------------0h3---|

Am            C            G       Am
    Everybody thinks we'll fall apart
Am               C                   G          Am
    Everybody's quick to point their fingers at what
Am                C          G     Am
    They think is causing the problem
Am                C                      G            Am
    And what they don't see is what they won't see my friend

[Refrão]
 
      F        G       Am       Em
E|-------------------------------------|
B|---1-x-1----0-x-0----1-x-1----0-x-0--|
G|---2-x-2----0-x-0----2-x-2----0-x-0--|
D|---3-x-3----0-x-0----2-x-2----2-x-2--|
A|-------------------0---x-------------|
E|-1---x----3---x-------------0---x----|

F         G          Am     Em
And we've all got to learn ourselves
F              G               Am     Em
Before, we can judge some one else
F         G          Am     Em
And we've all got to learn ourselves
F              G               Am
Before, we can judge some one else

( Am  C  G  Am )
( Am  C  G  Am )
( Am  C  G  Am )
( Am  C  G  Am )

Am               C             G       Am
   Just like the holy scripture talks
Am               C             G          Am
   Of a road to redemption in amongst the thorns
Am             C        G       Am
   The path is beset by ego and greed
Am           C                 G             Am
   And if we don't see then we won't ever be free

[Refrão]
 
      F        G       Am       Em
E|-------------------------------------|
B|---1-x-1----0-x-0----1-x-1----0-x-0--|
G|---2-x-2----0-x-0----2-x-2----0-x-0--|
D|---3-x-3----0-x-0----2-x-2----2-x-2--|
A|-------------------0---x-------------|
E|-1---x----3---x-------------0---x----|

F         G          Am     Em
And we've all got to learn ourselves
F              G               Am     Em
Before, we can judge someone else
F         G          Am     Em
And we've all got to learn ourselves
F              G               Am
Before, we can judge someone else

[Solo]  Am  C  G  Am
        Am  C  G  Am
        Am  C  G  Am
        Am  C  G  Am

F         G          Am     Em
And we've all got to learn ourselves
F              G               Am     Em
Before, we can judge someone else
F         G          Am     Em
And we've all got to learn ourselves
F              G               Am     Em
Before, we can judge someone else

F                 G               Am     Em
Along the path we walk we've only got to find.
F                 G               Am     Em
Along the path we walk we've only got to find.
F                 G               Am     Em
Along the path we walk we've only got to find.

    F        G     Am     Em
Our own heart, own mind
    F        G     Am     Em
Our own heart, own mind
    F        G     Am     Em
Our own heart, own mind
    F        G     Am
Our own heart, own mind
Composição de Mat McHugh
Colaboração e revisão:
  • André Vernizi
6.653 exibições
    • ½ Tom
    • A
    • Bb
    • B
    • C
    • Db
    • D
    • Eb
    • E
    • F
    • F#
    • G
    • Ab
  • Adicionar à lista

    0 comentários

    Ver todos os comentários

    Conseguiu tocar?

    0 Tocaram 0 Ainda não

    Grave um vídeo tocando Learn Yourself e nos envie!

    00:00 / 00:00
    outros vídeos desta música
    repetir qualidade Automático
    Outros vídeos desta música
    00:00 / 00:00
    Automático

    Cifra Club Pro

    Aproveite o Cifra Club com benefícios exclusivos e sem anúncios
    Cifra Club Pro
    Aproveite o Cifra Club com benefícios exclusivos e sem anúncios
    OK