Deaf Policemen

The Chariot

Composição de: Josh Scogin
tom: G
Drop D
Tab by Zachary
*

b  - bend
p  - pull off
h  - hammer on
bp - bend & pull off


  (0:00 - 0:32)                    
E|---------------------------------||
B|---------------------------------||
G|---------------------------------|| 12x
D|-2bp0-0-6b-0---2bp0-0-6b-0--3333-||
A|-2bp0-0-6b-0---2bp0-0-6b-0--3333-||
D|-2bp0-0-6b-0---2bp0-0-6b-0--3333-||

  (0:33 - 0:54)
E|----------------------------------------------||
B|----------------------------------------------||
G|----------------------------------------------|| 4x
D|-88888888--1111111111111111--4444444444444444-||
A|-88888888--1111111111111111--4444444444444444-||
D|-88888888--1111111111111111--4444444444444444-||

  (0:54 - 1:04)
E|------------||
B|------------||
G|----8-7p0h7-|| 8x
D|-0--7-6p0h6-||
A|-0----------||
D|-0----------||

  (1:04 - 1:25)
E|----------------------------------------------||
B|----------------------------------------------||
G|----------------------------------------------||
D|-88888888--1111111111111111--4444444444444444-|| 4x
A|-88888888--1111111111111111--4444444444444444-||
D|-88888888--1111111111111111--4444444444444444-||

  (1:25 - 1:38
E|---------------------------------||
B|---------------------------------||
G|---------------------------------|| 1x
D|---------------------------------||
A|----------------------------3----||
D|-2bp0-0-6b-0---2bp0-0-6b-0--3----||

E|---------------------------------||
B|---------------------------------||
G|---------------------------------|| 4x
D|-2bp0-0-6b-0---2bp0-0-6b-0--3333-||
A|-2bp0-0-6b-0---2bp0-0-6b-0--3333-||
D|-2bp0-0-6b-0---2bp0-0-6b-0--3333-||

  (1:38 - 2:11)  Then (2:35 - 2:11)
E|----------------------------------------------------------------||
B|----------------------------------------------------------------||
G|----------------------------------------------------------------||
D|-3----3-----333-----3-----3------3------3-----------------------||
A|-3----3-----333-----3-----3------3------3-----------------------||
D|-3----3-----333-----3-----3------3------3-----------------------||

END
Página 1 / 1

Letras e título
Acordes e artista

resetar configurações
OK