Phil Cosby Before There Was Atlanta There Was Douglasville

The Chariot

Composição de: The Chariot
tom: A
Album  – Unsung EP

Give me some Feedback!
E-mail: HalfGallonKalin@*
Myspace:   *         --- best way to contact me
AIM:          HalfGallonKalin                                   --- (I’m never on)

I only found one other tab for this song and it was no good. So I made this one.
Remember: This is a Tab of “Before there was Atlanta, There was Douglasville" off
their “Everything is Alive, Everything is Breathing Nothing is Dead and Nothing is
Bleeding" Album. But it’s still VERY Similar! Besides you should know this version
anyway b/c this is how they play it live!
I plan on tabbing out most of the other songs on their Unsung Ep so check back
sometime. !If someone has “fear before the march of flames- Law of averages" tab
PLEASE send it to me thanks!
Enjoy!

Tuning B F# B F A D – (It’s right I promise!)

0:00-0:15
D --------------------------------------------------------------------|
A --------------------------------------------------------------------|
F --------------------------------------------------------------------|
B -16-10----00000-----------------------------------------------------|
F#-16-10----00000-----------------------------------------------------|
B -16-10----00000-----------------------------------------------------|
            ..... 
0:15-0:30
D --------------------------------------------------------------------|
A ---------13-(6x)----------------------------------------------------|
F ---------16---------------------------------------------------------|
B -000000-------------------------------------------------------------|
F#-000000-------------------------------------------------------------|
B -000000-------------------------------------------------------------|
   ......    
0:30-0:41
D --------------------------------------------------------------------|
A ---12-(10x)---------------------------------------------------------|
F ---15---------------------------------------------------------------|
B -0------------------------------------------------------------------|
F#-0------------------------------------------------------------------|
B -0------------------------------------------------------------------|
   .
0:41-0:43  BIG SLIDE
D --------------------------------------------------------------------|
A --------------------------------------------------------------------|
F --------------------------------------------------------------------|
B –1/20---------------------------------------------------------------|
F#-1/20---------------------------------------------------------------|
B –1/20---------------------------------------------------------------|

0:43-0:49
D --------------------------------------------------------------------|
A ---12(10x)----------------------------------------------------------|
F ---15---------------------------------------------------------------|
B -0------------------------------------------------------------------|
F#-0------------------------------------------------------------------|
B -0------------------------------------------------------------------|
   .
0:49-0:52 RIFF
D --------------------------------------------------------------------|
A --------------------------------------------------------------------|
F -------5-----------------5------------------------------------------|
B ---4-----4-----------4----------------------------------------------|
F#-4---4-----4-----4-----4--------------------------------------------|
B -------------4-3---3------------------------------------------------|

0:52-0:55
D --------------------------------------------------------------------|
A ---12(10x)----------------------------------------------------------|
F ---15---------------------------------------------------------------|
B -0------------------------------------------------------------------|
F#-0------------------------------------------------------------------|
B -0------------------------------------------------------------------|
   .
0:55-0:57 Second Big Slide
D --------------------------------------------------------------------|
A --------------------------------------------------------------------|
F –4/18---------------------------------------------------------------|
B --------------------------------------------------------------------|
F#--------------------------------------------------------------------|
B --------------------------------------------------------------------|

0:57-1:04
D --------------------------------------------------------------------|
A ---12(10x)---12(10x)-------13(10x)---13(10x)------------------------|
F ---15--------15------------16--------16-----------------------------|
B -0---------0---------7-6-0---------0--------------------------------|
F#-0---------0---------7-6-0---------0--------------------------------|
B -0---------0---------7-6-0---------0--------------------------------|
   .         .             .         . 
1:04-1:11
D --------------------------------------------------------------------|
A --------------------------------------------------------------------|
F ---------(4x)-------------------------------------------------------|
B -|-0-1---5p4---------|----------------------------------------------|
F#-|-0-1-------5p4h5p0-|----------------------------------------------|
B -|-0-1---------------|----------------------------------------------|
          
1:11-1:17
D --------------------------------------------------------------------|
A --------------------------------------------------------------------|
F --------------------------------------------------------------------|
B -0------0000-----0-0-------0000-----4-------------------------------|
F#-0-5----0000-5---0-0--5----0000-5-----------------------------------|
B -0---4--0000---4-0-0----4--0000---4---------------------------------|
          ....       .       ....
1:17-1:23
D --------------------------------------------------------------------|
A --------------------------------------------------------------------|
F -----------(4x)-----------------------------------------------------|
B -|-------------------------|----------------------------------------|
F#-|-5p4---------3p2---------|----------------------------------------|
B -|-----5p4h5p0-----3p2h3p0-|----------------------------------------|

1:23-1:30
D -------------------------------------------------------------------|
A -------------------------------------------------------------------|
F --------(4x)-------------------------------------------------------|
B -|-----------------|-----------------------------------------------|
F#-|-5-4-----3-2-----|-----------------------------------------------|
B -|-----5-4-----3-2-|-----------------------------------------------|

(1:30-1:31 – Rest)

1:32-2:10
D --------------------------------------------------------------------|
A --------------------------------------------------------------------|
F --------------------------------------------------------------------|
B –(10x)--------(1x)-------(3x)-----(1x)-----(1x)----(1x)-----(1x)----|
F#-5-4---------6-5--------5-4------5-5-4-----5-4-----5-5-4----5-4-----|
B -----4-----------5----------4----------4-------4---------4------4---|

2:10-End
D --------------------------------------------------------------------|
A --------------------------------------------------------------------|
F --------------------------------------------------------------------|
B -0------------------------------------------------------------------|
F#-0------------------------------------------------------------------|
B -0------------------------------------------------------------------|
   
Página 1 / 1

Letras e título
Acordes e artista

resetar configurações
OK