Cifra Club

Aprenda

They Faced Each Other

The Chariot

Cifra: Principal (violão e guitarra)
Quer fazer aulas de música com a gente? Responda essas perguntas
e nos ajude nesse projeto! →
tom: C
The Fiancée

this is an insane song. this band is insane. and there aren't enough
tabs for this band. so if you know a song for this band, tab it! please!


            
|-----------------------------------|
|-----------------------------------|
|-6/5-6/5----------6/5-6/5----------|
|-x/x-x/x-44433300-x/x-x/x-44433300-|
|-4/3-4/3-44433300-4/3-4/3-44433300-|
|---------44433300---------44433300-|

|---------------------------------------------|     
|---------------------------------------------|     
|-5-4-3-----------------5-4-3-----------------|     
|-x-x-x-----------------x-x-x-----------------|
|-3-2-1-4-4-4-3-3-3-0-0-5-2-1-4-4-4-3-3-3-0-0-|
|-------4-4-4-3-3-3-0-0-------4-4-4-3-3-3-0-0-|
        . . . . . . . .       . . . . . . . .

|-------|
|-------|
|-6/5\6-|
|-x/x\x-|
|-4/3\4-|
|-------|

|-----------------------------------|
|-----------------------------------|
|-6/5-6/5----------6/5-6/5----------| 
|-x/x-x/x-44433300-x/x-x/x-44433300-|
|-4/3-4/3-44433300-4/3-4/3-44433300-|
|---------44433300---------44433300-|

|--------------------------|
|--------------------------|
|--------------------------|just slide farther up. its kinda like this
|-777777777/888/999/101010-|
|-777777777/888/999/101010-|
|-777777777/888/999/101010-|

amazing breakdown
|-------------||------------3-|
|-------------||------------3-|i think the 3's are done with pinch harmonics
|-------------||------------3-| 
|-3-6-3-0-----||-3-6-3-0--/---|
|-3-6-3-0-----||-3-6-3-0--/---|
|-3-6-3-0-/17~||-3-6-3-0--/---|

|-------|------------------------------|
|-------|---5---3---5---3-----5---5----| bend the 5's and 3's
|-------|---5---3---5---3-----5---5----|
|-3-6-3-|-4---4---4---4---4-7---7---7--| 
|-3-6-3-|-4---4---4---4---4-7---7---7--|  
|-3-6-3-|-4---4---4---4---4-7---7---7--|

|-------3-------3-------5-------5-|
|---3---3---3---3---5---5---5---5-| bend the 5's and 3's
|---3-------3-------5-------5-----| 
|-4---4---4---4---7---7---7---7---|
|-4---4---4---4---7---7---7---7---|
|-4---4---4---4---7---7---7---7---|

|----------------------|        
|----------------------|        
|----5---5-------7---7-|        
|-/7---7---7---9---9-9-|           
|----------------------|        
|----------------------|        

|------------------------------|
|------------------------------|
|------------------------------|
|---5---3---5---3-----5----5---| 
|------------------------------|
|-4---4---4---4---4-7----7---7-|

|-------3-------3-------5-------5-|
|---3---3---3---3---5---5---5---5-| bend the 5's and 3's
|---3-------3-------5-------5-----| 
|-4---4---4---4---7---7---7---7---|
|-4---4---4---4---7---7---7---7---|
|-4---4---4---4---7---7---7---7---|

|------------------------------|
|---5---3---5---3-----5---5----| bend the 5's and 3's
|---5---3---5---3-----5---5----|
|-4---4---4---4---4-7---7---7--| 
|-4---4---4---4---4-7---7---7--|  
|-4---4---4---4---4-7---7---7--|

|---------|
|---5---3-|
|---5---3-|
|-4---4---|
|-4---4---|
|-4---4---|

the end

and i have to give some of the credit to ChrisShreds for this. 
i got some of this from his tab. but i changed some of it. i think it sounds
better this way. so thanks dude.

.  palm mutes
/\ slides
~  bend
x  dead string


Please Rate!!!!

Composição de Josh Scogin
159 exibições
    • ½ Tom
    • A
    • Bb
    • B
    • C
    • Db
    • D
    • Eb
    • E
    • F
    • F#
    • G
    • Ab
  • Adicionar à lista

    0 comentários

    Ver todos os comentários

    Conseguiu tocar?

    0 Tocaram 0 Ainda não

    Grave um vídeo tocando They Faced Each Other e nos envie!

    00:00 / 00:00
    Outros vídeos desta música
    Repetir Qualidade Automático
    Outros vídeos desta música
    00:00 / 00:00
    Automático

    Cifra Club Pro

    Aproveite o Cifra Club com benefícios exclusivos e sem anúncios
    Cifra Club Pro
    Aproveite o Cifra Club com benefícios exclusivos e sem anúncios
    OK