Cifra Club

Aprenda

Dance Me To The End Of Love

The Civil Wars

Cifra: Principal (violão e guitarra)
Tom: F (forma dos acordes no tom de C) Capotraste na 5ª casa
    Am                    Em                     B7 / B7/F#  Em
E|--------------------------------------------|
B|-3/1-1--3-3--1-1--3-3-----------------------|
G|-4/2-3--4-4--2-2--4-4-----------------------|
D|-----------------------2/0-0--2-2--0-0--2-2-|
A|-----------------------4/2-2--4-4--2-2--4-4-|
E|--------------------------------------------|

Am / A9                        Em
Dance me to your beauty with a burning violin
Am / A9                             Em
Dance me through the panic 'til I'm gathered safely in
Am / A9                          Em
Lift me like an olive branch and be my homeward dove
B7 / B7/F#           Em
Dance me to the end of love
B7 / B7/F#           Em
Dance me to the end of love
Am / A9                            Em
Oh let me see your beauty when the witnesses are gone
Am / A9                     Em
Let me feel you moving like they do in Babylon
Am / A9                    Em
Show me slowly what I only know the limits of
B7 / B7/F#           Em
Dance me to the end of love
B7 / B7/F#           Em
Dance me to the end of love

La…la…la…

    Am                    Em                     B7 / B7/F#  Em
E|--------------------------------------------|
B|-3/1-1--3-3--1-1--3-3-----------------------|
G|-4/2-3--4-4--2-2--4-4-----------------------|
D|-----------------------2/0-0--2-2--0-0--2-2-|
A|-----------------------4/2-2--4-4--2-2--4-4-|
E|--------------------------------------------|

Am / A9                      Em
Dance me to the wedding now, dance me on and on
Am / A9                    Em
Dance me very tenderly and dance me very long
Am / A9                                  Em
We're both of us beneath our love, we're both of us above
B7 / B7/F#           Em
Dance me to the end of love
B7 / B7/F#           Em
Dance me to the end of love

La…la…la…

    Am                    Em                     B7 / B7/F#  Em
E|--------------------------------------------|
B|-3/1-1--3-3--1-1--3-3-----------------------|
G|-4/2-3--4-4--2-2--4-4-----------------------|
D|-----------------------2/0-0--2-2--0-0--2-2-|
A|-----------------------4/2-2--4-4--2-2--4-4-|
E|--------------------------------------------|


Dicas:
- B7 / B7/F# ficar alternando o baixo entre Si e Fá#
- Am / A9 ficar alternando entre o acorde Am e A9
Composição de Leonard Cohen
Colaboração e revisão:
  • Rodrigo Vinci
4.527 exibições
    • ½ Tom
    • A
    • Bb
    • B
    • C
    • Db
    • D
    • Eb
    • E
    • F
    • F#
    • G
    • Ab
  • Adicionar à lista

    0 comentários

    Mostrar mais comentários

    Conseguiu tocar?

    1 Tocaram 0 Ainda não

    Grave um vídeo tocando Dance Me To The End Of Love e mande pra gente!

    00:00 / 00:00
    outros vídeos desta música
    repetir qualidade Automático
    Outros vídeos desta música
    00:00 / 00:00
    Automático

    Cifra Club Pro

    Aproveite o Cifra Club com benefícios exclusivos e sem anúncios
    7 dias grátis
    Cifra Club Pro
    Aproveite o Cifra Club com benefícios exclusivos e sem anúncios
    7 dias grátis
    OK