Cifra Club

I Fought The Law

The Clash

Cifra: Principal (violão e guitarra)
Tom: G
Intro:

    D            D            G            A
|-------------------------------------------------------|
|-------------------------------------------------------|
|.--12/14-14-14--12/14-14-14--12/14-14-14--12/14-14-14--|
|.------------------------------------------------------|
|-------------------------------------------------------|
|-------------------------------------------------------|

   D            D            A  G  F#m D
|-------------------------------------------------------|
|-------------------------------------------------------|
|--12/14-14-14--12/14-14-14--14-12-11------------------.|
|-------------------------------------12---------------.|
|-------------------------------------------------------|
|-------------------------------------------------------| (2x)


Canto:

D        D           G    D
Breakin' rocks in the hot sun

D            D           G   D
I fought the law and the law won (2x)

D        D           G      D
I needed money 'cause I had none

D            D           G   D
I fought the law and the law won (2x)


Refrão:

G                                   D
I left my baby and it feels so bad, guess my race is run

G
She's the best that I ever had

D                        G   D
I fought the law and the law won

D                       A G F#m D
I fought the law and the ...


Solo:

|----------------------------------14---|
|--------------------------12--15-------|
|.-----------11--11/12--14-------------.|
|.-----12/14---------------------------.|
|---14----------------------------------|
|---------------------------------------|


Intro (1x)

Canto2 (1x)

Refrao (1x)

Intro (2x)

I fought the law and the law won (4x - Sem cordas)

I fought the law and the law won (4x - Apenas baixo)
exibições 36.444
Acordes para:
    Composição: Sonny Curtis

    0 comentários

    mostrar mais comentários

    Conseguiu tocar?

    10 tocaram 0 ainda não

    Grave um vídeo tocando I Fought The Law e mande pra gente!

    00:00 / 00:00
    outros vídeos desta música
    repetir qualidade Automático
    Outros vídeos desta música
    00:00 / 00:00
    Automático
    OK