Cifra Club

Aprenda

Growing On Me Solo

The Darkness

Cifra: Principal (violão e guitarra)
tom: A
Growing on Me

     Tabbed by:
          LS311                    KEY:
                                      . = dont let note ring out   h = hammeron
                                      v = vibrato                  p = pulloff
TUNEING: Dropped D                    \ = slide down               ^ = bend
     DADGBE

here is the solo that everybody has trouble tabbing out. enjoy.

SOLO2
E|------------------------------------------------------------------------------|
B|*|
G|--------------------------2---------------------------------------------------|
D|*|
A|5v--------------------------------------------------------------------------5-|
D|------------------------------------------------------------------------------|

 -------------------------------------------------------------17--17--17--17--17--17--17--17--|
 *|
 19v\---------------------------18-19-14------------------------------------------------------|
 ---------------------------------------------------------------------------------------------|
 ---------------------------------------------------------------------------------------------|
 ---------------------------------------------------------------------------------------------|

 --0--0--0-------------------------------------------------------------------------------------------||
 15-15-15-15h17p15h19-15h17p15h19-15h17p15h19-15h17p15h19\10121012101210-----------------------------||
 ----------------------------------------------------------------------------------------------------||
 -----------------------------------------------------------------------16v-16-17-16v-16-14p12h14-12v||
 ----------------------------------------------------------------------------------------------------||
 ----------------------------------------------------------------------------------------------------||

Thats the jist of this solo, he would improv alot durring the end, this is the album version. have fun!
491 exibições
    • ½ Tom
    • A
    • Bb
    • B
    • C
    • Db
    • D
    • Eb
    • E
    • F
    • F#
    • G
    • Ab
  • Adicionar à lista

    0 comentários

    Ver todos os comentários

    Conseguiu tocar?

    0 Tocaram 0 Ainda não

    Grave um vídeo tocando Growing On Me Solo e nos envie!

    00:00 / 00:00
    outros vídeos desta música
    repetir qualidade Automático
    Outros vídeos desta música
    00:00 / 00:00
    Automático

    Cifra Club Pro

    Aproveite o Cifra Club com benefícios exclusivos e sem anúncios
    Cifra Club Pro
    Aproveite o Cifra Club com benefícios exclusivos e sem anúncios
    OK