Cifra Club

Aprenda

I believe in a called love (versão 2)

The Darkness

Cifra: Principal (violão e guitarra)
tom: D
Artista: The Darkness
Música: I believe in a thing called love

  INTRO/VERSE                          _______________ ___________
                            X2         | 1.           | 2.
e--------------------------------------|-------------|------------
b--------------------------------------|------------*|------------
g------2--4-4---4-4--------4-4--2-2----|-------------|------------
d--4---2--4-4---4-4---2-2--4-4--2-2----|-------------|------------
a--4---0--2-2---2-2---2-2--2-2--0-0----|-0--2--4----*|-0----------
E--2------------------0-0------------4~|----------0--|----4--2--0-


   BRIDGE
                _____________________________________________________
               | 1.2.             | 3.  
e--------------|------------------|--------------------------------
b--------------|----------------*-|--------------------------------
g--------------|------------------|--2--3-3-4-4-4-4-4-4-4-4-4-4-4-4-4
d2---4--4-4-4--|4-4-4-4-4-4-4-4---|--2--3-3-4-4-4-4-4-4-4-4-4-4-4-4-4
a2---4--4-4-4--|4-4-4-4-4-4-4-4-*-|--0--1-1-2-2-2-2-2-2-2-2-2-2-2-2-2
E0---2--2-2-2--|2-2-2-2-2-2-2-2---|--------------------------------


CHORUS

                                X3        | 1.         |2.(finish)
e-----------------------------------------|------------|-0--------
b---------------------------------------*-|------------|-0--------
g-----------------------------------------|------------|-1--------
d-----------2------------------4--6--4----|-6--6----6-7|-2--------
a-----------0--------4--6--4---2--4--2--*-|-4--4--0-4-5|-2--------
E--0--2--4----4---0--2--4--2--------------|------------|-0--------

Solo 1

e12------12---12-------------16b-(17)-(16)--------------------------
b12b-(14)-(14)--(14)-12-12-----------------------------------15b-(17)
g-------------------------------------------16b-(18)-(16)-----------
d---------------------------------------------------------14--------
a-------------------------------------------------------------------
E-------------------------------------------------------------------

Solo 2

e---------------------------7---7---7-----------------------------
b-5-5-5-5-5-5-5-5-5---8b-(9)-(9)-(9)--(9)-(8)--5--4--2--0---------
g---------------------------------------------------------1-2--4-4
d-----------------------------------------------------------------
a-----------------------------------------------------------------
E-----------------------------------------------------------------

e-----------------------------------------0------------------------
b--------------------------------------------0---------------------
g-----------------------------------------------1---1-1-2--4-4-----
d--4h-6-6-6s___4--2-2h-4-4-4s__6s__4-2-2---------------------------
a------------------4-----------------------------------------------
E------------------------------------------------------------------

e------------------------------------9-------9--------------------
b----10---10----10----10---9-----------9-------9-------12p--9-----
g----12b-(14)--(14)--(14)--11b-(13)------(13)----(13)-------------
d-----------------------------------------------------------------
a-----------------------------------------------------------------
E-----------------------------------------------------------------

e--------------------------------------------------------------
b------------------------------------------5---5---5-5-5--5-5-5-5
g--11p-9-11p-9-9-9--11--9-----9------------4---4---4-4-4---------
d--------------------------11---11----4h-6---6---6---------------
a-----------------------------------------------------------------
E-----------------------------------------------------------------

e-4--4-4---4-4--5--7-7----------
b-5--5-5---5-5--7--9-9----------
g-------------------------------
d-------------------------------
a-------------------------------
E-------------------------------

Solo 3


e------------------------------------------------------------------
b--15b-(17)-15-(17)-15p-12-------------------------12b-(13)--------
g---------------------------14p-12-14-12-----------12b-(13)--------
d----------------------------------------14p-12-14---------14-14-14
a------------------------------------------------------------------
E------------------------------------------------------------------

e------------------------------------------------------------------
b---12b-(13)-------------------------------------------------------
g---12b-(13)---------12b-(13)--------------------------------------
d-----------14-14-14----------14p-12-------------------------------
a------------------------------------14p-12--14p-12----------------
E----------------------------------------------------15---12p-10-12

e--2p-0-0-4p-0-0-5p-0-0-7p-0-5p-0-7p-0-9p-0-0-11p-0-12p-0-11p-0
b--------------------------------------------------------------
g--------------------------------------------------------------
d--------------------------------------------------------------
a--------------------------------------------------------------
E--------------------------------------------------------------

e-12p-0--14p-0-0-16p-0-0-17p-0-0-19p-0-0-21p-0-0-22b-(24)----
b------------------------------------------------------------
g------------------------------------------------------------
d------------------------------------------------------------
a------------------------------------------------------------
E------------------------------------------------------------

OUTRO

e------------------------------------------------------------22b-(24)
b15b-(17)-12-15p-12-14p-11-13p-10-12p-9-11p-8-10p-7-9p-6-8p-5-------
g-------------------------------------------------------------------
d-------------------------------------------------------------------
a-------------------------------------------------------------------
E-------------------------------------------------------------------

e-----------0!!!!!!!!!!!!!!!!!!!!!!!!!!!!!!!!!!!!!!!!!!!!!!!
b-----------0!!!!!!!!!!!!!!!!!!!!!!!!!!!!!!!!!!!!!!!!!!!!!!!
g-----------1!!!!!!!!!!!!!!!!!!!!!!!!!!!!!!!!!!!!!!!!!!!!!!!
d-----------2!!!!!!!!!!!!!!!!!!!!!!!!!!!!!!!!!!!!!!!!!!!!!!!
a-----------2!!!!!!!!!!!!!!!!!!!!!!!!!!!!!!!!!!!!!!!!!!!!!!!
E-----------0!!!!!!!!!!!!!!!!!!!!!!!!!!!!!!!!!!!!!!!!!!!!!!!
Composição de Dan Hawkins / Frankie Poullain / Justin Hawkins
25.711 exibições
    • ½ Tom
    • A
    • Bb
    • B
    • C
    • Db
    • D
    • Eb
    • E
    • F
    • F#
    • G
    • Ab
  • Adicionar à lista

    0 comentários

    Ver todos os comentários

    Conseguiu tocar?

    0 Tocaram 0 Ainda não

    Grave um vídeo tocando I believe in a called love (versão 2) e nos envie!

    00:00 / 00:00
    outros vídeos desta música
    repetir qualidade Automático
    Outros vídeos desta música
    00:00 / 00:00
    Automático

    Cifra Club Pro

    Aproveite o Cifra Club com benefícios exclusivos e sem anúncios
    Cifra Club Pro
    Aproveite o Cifra Club com benefícios exclusivos e sem anúncios
    OK