Enviar cifraEntrar

I Believe In A Thing Called Love

The Darkness

Cifra: Principal
exibições 128.831
Tom: F#
Introdução:

(Riff Principal)

  F#5    A5  B5           E5     B5     A5
E|-----------------------------------------
B|-----------------------------------------
G|-------2-2-4-4--x-x-4-4--------4-4--x-2-2
D|4--x-x-2-2-4-4--x-x-4-4-2-2--x-4-4--x-2-2
A|4--x-x-0-0-2-2--x-x-2-2-2-2--x-2-2--x-0-0
E|2--x-x------------------0-0--x-----------


E|-----------------------------------------
B|-----------------------------------------
G|-----------------------------------------
D|-----------------------------------------
A|-----0-2-4-------------------------------
E|-4~~-------0-----------------------------


(variação)

E|-----------------------------------------
B|-----------------------------------------
G|-----------------------------------------
D|-----------------------------------------
A|-----0-----------------------------------
E|-4~~---4-2-0-----------------------------



Primeira Parte:

Can't explain all the feelings
That you're making me feel
My heart's in overdrive and
You're behind the steering wheel

Ponte:

           P.M . . . . . . . . .

E|-----------------------------------------
B|-----------------------------------------
G|-----------------------------------------  (2)
D|-2--2-4--4-4-4-4-4-4-4-4-4-4-4-----------
A|-2--2-4--4-4-4-4-4-4-4-4-4-4-4-----------
E|-0--0-2--2-2-2-2-2-2-2-2-2-2-2-----------


E|-----------------------------------------
B|-----------------------------------------
G|---------------2-3--4-4-4-4-4-4-4-4-4-4-4
D|-2--2-4--4-4-4-2-3--4-4-4-4-4-4-4-4-4-4-4
A|-2--2-4--4-4-4-0-1--2-2-2-2-2-2-2-2-2-2-2
E|-0--0-2--2-2-2---------------------------


E|-----------------------------------------
B|-----------------------------------------
G|-4-4-4-4-4-------------------------------
D|-4-4-4-4-4-------------------------------
A|-2-2-2-2-2-------------------------------
E|-----------------------------------------



Touching you
Touching me
Touching you, God you're touching me

Primeiro Refrão:


   E5    A5     F#5    A5 B5
E|-----------------------------------------
B|-----------------------------------------
G|-----------------------------------------
D|-------2-------------4--4/6-4------------
A|-2-----0------4----0-2--2/4-2~-----------
E|-0-2-4----4-0-2--4-----------------------


E|-----------------------------------------
B|-----------------------------------------
G|-----------------------------------------
D|-4/6-6---6-4-6-7--7----------------------
A|-2/4-4---4-2-4-5--5----------------------
E|-----------------------------------------



I believe in a thing called love
Just listen to the rhythm of my heart
There's a chance we could make it now
We'll be rocking 'til the sun goes down
I believe in a thing called love

Solo 1:


E|-------12-----12-----------------------------------
B|-12b14----b14----b14-b14r12~~----------------------
G|---------------------------------------------------
D|---------------------------------------------------
A|---------------------------------------------------
E|---------------------------------------------------


(Guitarra 1)

E|-16b17r16------------------------------------------
B|----------17-------------------15b17~~-------------
G|-------------16-13b14r13---------------------------
D|-------------------------14~~----------------------
A|---------------------------------------------------
E|---------------------------------------------------


(Guitarra 2)

E|-19b21r19-16---------------------------------------
B|-------------17------------------------------------
G|----------------16b18r16---------------------------
D|-------------------------18~~----------------------
A|---------------------------------------------------
E|---------------------------------------------------



Segunda Parte:

I wanna kiss you every minute,
Every hour, every day
You got me in a spin but everything is A OK!

Ponte:

Touching you
Touching me
Touching you, God you're touching me

Segundo Refrão:

I believe in a thing called love
Just listen to the rhythm of my heart
There's a chance we could make it now
We'll be rocking 'til the sun goes down
I believe in a thing called love

Solo 2:

(Parte 1)

E|-0--0-0-0--0-0-0--0--0------7----7------------0---0
B|-5~-5-5-5~-5-5-5~-5~-5~-7b9---b9---b9r7--5h7--5~--4
G|---------------------------------------------------
D|---------------------------------------------------
A|---------------------------------------------------
E|---------------------------------------------------


E|-0-------------------------------------------------
B|-2~------------------------------------------------
G|-----4~--1--2--4-4~--------------------------------
D|---------------------------------------------------
A|---------------------------------------------------
E|---------------------------------------------------


(Parte 2)

E|---------------------------------4--0--------------
B|---------------------------------5--0--------------
G|-----------------------1---------------\1~--1-2-4-4
D|-4h6-6-6-4-2---2h4-4-4---4-2-2~~-------------------
A|-------------4-------------------------------------
E|---------------------------------------------------


(Parte 3)

E|----------------------------------9----------9-----
B|10-----10------10----10----9--------12---------12p9
G|13b14--13b14~--13b14-13b14-12b13~------11b13-------
D|---------------------------------------------------
A|---------------------------------------------------
E|---------------------------------------------------


E|-9------9------------------------------------------
B|---12p9---12p9-------------------------------------
G|---------------11p9-11p9-------9-9~--11-9------9---
D|-------------------------11-11------------11~~---11
A|---------------------------------------------------
E|---------------------------------------------------


(Parte 4)

E|---------------------------------------------------
B|---------------------------------------------------
G|-------9-----9------9~-----------9~-------9--------
D|-------9-----9------9~-----------9~-------9--------
A|-9h11----x-x---11-9-----11~--x-x-----11~-----x-x---
E|---------------------------------------------------


E|---------------------------------------------------
B|---------------------------------------------------
G|-9~--9~--9~--9~--9--11--13--13~\-------------------
D|-9~--9~--9~--9~--9--9---9---9~-\-------------------
A|---------------------------------------------------
E|---------------------------------------------------



Ponte:

Touching you,
Touching me
Touching you, God you're touching me

Terceiro Refrão:

I believe in a thing called love
Just listen to the rhythm of my heart
There's a chance we could make it now
We'll be rocking 'til the sun goes down
I believe in a thing called love

Solo 3:

(Parte 1)
                                            H.A

E|------------------12-------------------------------
B|-15b17r15b17-b17~----15-12-------------------------
G|---------------------------15-14p12-------14b16----
D|------------------------------------14-12-------12~
A|---------------------------------------------------
E|---------------------------------------------------


(Parte 2)
                             H.A

E|---------------------------------------------------
B|---------------------------------------------------
G|-----------12~~------------12~~------------12~~----
D|-14-12-14--------14-12-14--------14-12-14----------
A|---------------------------------------------------
E|---------------------------------------------------


E|---------------------------------------------------
B|---------------------------------------------------
G|---------------------------------------------------
D|-14p12---------------------------------------------
A|-------14-13-12-13-14--10~-------------------------
E|---------------------------12-10-12\---------------


(Parte 3)

E|-4-0-0-5-0-0-7-0-0-9-0-0-7-0-9-0-11-0-9-0-11-0-12-0
B|---------------------------------------------------
G|---------------------------------------------------
D|---------------------------------------------------
A|---------------------------------------------------
E|---------------------------------------------------


E|-14-0-12-0-14-0-16-0-17-0-0-16-0-0-19-0-0-17-0-0-19
B|---------------------------------------------------
G|---------------------------------------------------
D|---------------------------------------------------
A|---------------------------------------------------
E|---------------------------------------------------


E|-0-21-0-22b24--------------------------------------
B|---------------------------------------------------
G|---------------------------------------------------
D|---------------------------------------------------
A|---------------------------------------------------
E|---------------------------------------------------


(Passagem - Refrão)

Final:


E|---------------------------------------------------
B|---------------------------------------------------
G|-19b21~~-16h19p16\15h18p15\14h17p14\13h16p13\12h15-
D|---------------------------------------------------
A|---------------------------------------------------
E|---------------------------------------------------

                                 H.A  .

E|---------------------------------------------------
B|---------------------------------------------------
G|-p12\11h14p11\10h13p10\9h12p9--9~~--9~~------------
D|---------------------------------------------------
A|---------------------------------------------------
E|---------------------------------------------------

  • 1
  • 2
  • 3
  • 4
  • 5
  • 6
  • 7
  • 8
  • 9
  • 10
  • 11
  • 12
    Acordes para:
      Composição: Dan Hawkins / Frankie Poullain / Justin HawkinsColaboração e revisão:
      • v.inny

      0 comentários

        mostrar mais comentários

        Conseguiu tocar?

        12tocaram0ainda não

        Grave um vídeo tocando I Believe In A Thing Called Love e mande pra gente!

        00:00 / 00:00
        outros vídeos desta música
        repetirqualidadeautomática
        • automática
        Outro vídeos desta música
          Capítulos
          • Início
          • Tocando a música
          • Configuração dos Efeitos
          • Acordes da Introdução e Primeira Parte
          • Tocando Introdução e Primeira Parte
          • Ensinando Riff Principal
          • Acordes da Ponte
          • Tocando Ponte
          • Ensinando Ponte
          • Acordes do Refrão
          • Tocando Refrão
          • Ensinando Refrão
          • Tocando Solo 1
          • Ensinando Solo 1
          • Tocando Solo 2
          • Ensinando Solo 2 - Parte 1
          • Ensinando Solo 2 - Parte 2
          • Ensinando Solo 2 - Parte 3
          • Ensinando Solo 2 - Parte 4
          • Tocando Solo 2 (Lento)
          • Tocando Solo 3
          • Ensinando Solo 3 - Parte 1
          • Ensinando Solo 3 - Parte 2
          • Ensinando Solo 3 - Parte 3
          • Tocando Solo 3 (Lento)
          • Tocando Final
          • Ensinando Final
          • Encerramento
          00:00 / 00:00
          automática
          • automática
          fecharplay/pause subir/descer velocidade
            acordes
            fechar
            OK
            Feedback