Cifra Club

For Tonight You're Only Here to Know

The Distillers

Cifra: Principal (violão e guitarra)
tom: B
[intro]
 guitar 1
|----------------------------------------------------------------------------|
|----------------------------------------------------------------------------|
|---------------------------------------------66-------66-------66-------66--|
|--888666---888666---888666---888666----888666---888666---888666---888666----| x2
|--------66-------66-------66-------66---------------------------------------|
|----------------------------------------------------------------------------|

 guitar 2
|----------------------------------------------------|
|----------------------------------------------------|
|--4>------------------------------------------------|
|--4>-----------------------------------4>-----------| x2
|--2>-----------------------------------4>-----------|
|---------------------------------------2>-----------|

[verse]
|-------------------------------------------------------|
|-------------------------------------------------------|
|--4-4-4-4-4-4------------------------------------------|
|--4-4-4-4-4-4-4-4-4-4-4-4-8-8-8-8-8-8-9-9-9-9-9-9-9-9--|
|--2-2-2-2-2-2-4-4-4-4-4-4-8-8-8-8-8-8-9-9-9-9-9-9-9-9--|
|--------------2-2-2-2-2-2-6-6-6-6-6-6-7-7-7-7-7-7-7-7--|

|---------------------------------------------------|
|---------------------------------------------------|
|--4-4-4-4-4-4-------------------------8-8-8-8-8-8--|
|--4-4-4-4-4-4-4-4-4-4-4-4-8-8-8-8-8-8-8-8-8-8-8-8--|
|--2-2-2-2-2-2-4-4-4-4-4-4-8-8-8-8-8-8-6-6-6-6-6-6--|
|--------------2-2-2-2-2-2-6-6-6-6-6-6--------------|

|-------------------------------------------------------|
|-------------------------------------------------------|
|--4-4-4-4-4-4------------------------------------------|
|--4-4-4-4-4-4-4-4-4-4-4-4-8-8-8-8-8-8-9-9-9-9-9-9-9-9--|
|--2-2-2-2-2-2-4-4-4-4-4-4-8-8-8-8-8-8-9-9-9-9-9-9-9-9--|
|--------------2-2-2-2-2-2-6-6-6-6-6-6-7-7-7-7-7-7-7-7--|

|----------------------------------------------------------------------------------|
|----------------------------------------------------------------------------------|
|--4-4-4-4-4-4-------------------------8-8-8-8-8-8---------------------------------|
|--4-4-4-4-4-4-4-4-4-4-4-4-8-8-8-8-8-8-8-8-8-8-8-8-8-8-8-8-8-9-9-9-9---------------|
|--2-2-2-2-2-2-4-4-4-4-4-4-8-8-8-8-8-8-6-6-6-6-6-6-8-8-8-8-8-9-9-9-9-11-11-11-11-11|
|--------------2-2-2-2-2-2-6-6-6-6-6-6-------------6-6-6-6-6-7-7-7-7-9--9--9--9--9-|

I really want you to sigh,
never in tune just sigh,
I really want you to sigh,
never in tune just sigh.

[chorus]
|-------------------------------------------|
|-------------------------------------------|
|--8-8-8-8-8---------------------3-3-3-3-3--|
|--8-8-8-8-8-9-9-9-9-9-4-4-4-4-4-3-3-3-3-3--| x4
|--6-6-6-6-6-9-9-9-9-9-4-4-4-4-4-1-1-1-1-1--|
|------------7-7-7-7-7-2-2-2-2-2------------|

just tonight I would, I would lay here for you
just tonight I would, I would sink here for you
just tonight I would, I would slum here for you
just tonight I would die.

[verse 2]
  guitar 1 [intro]
  guitar 2 [verse]

I really want you to sigh,
never in tune just sigh,
I really want you to sigh,
never in tune just sigh.

guitar 1 [solo] + guitar 2 [chorus]
|---------------------------------------------------|
|--------------------------7-7--7-6-----------------|
|-8-8-8-6-8/10-8-8--6-8-6-----------8-7-7-7-7-------|
|---------------------------------------------------| x2
|---------------------------------------------------|
|---------------------------------------------------|

[bridge] palm mute
|-------------------------------------------|
|-------------------------------------------|
|--8-8-8-8-8---------------------3-3-3-3-3--|
|--8-8-8-8-8-9-9-9-9-9-4-4-4-4-4-3-3-3-3-3--| x2
|--6-6-6-6-6-9-9-9-9-9-4-4-4-4-4-1-1-1-1-1--|
|------------7-7-7-7-7-2-2-2-2-2------------|

where am I, in the hallway small,
theres a red light, and a black sore.
away I say, away I say, away I say, away.

[chorus 2]
|-------------------------------------------|
|-------------------------------------------|
|--8-8-8-8-8---------------------3-3-3-3-3--|
|--8-8-8-8-8-9-9-9-9-9-4-4-4-4-4-3-3-3-3-3--| x4
|--6-6-6-6-6-9-9-9-9-9-4-4-4-4-4-1-1-1-1-1--|
|------------7-7-7-7-7-2-2-2-2-2------------|

you'll follow me till the end, till the end,
you'll swallow me till there's nothing left.
you'll follow me till the end, till the end,
you'll swallow me till there's nothing left.

[verse 2]
  guitar 1 [intro]
  guitar 2 [verse]

I really want you to sigh,
never in tune just sigh,
I really want you to sigh,
never in tune just sigh.

[end]
|-------------------------------------------------------|
|-------------------------------------------------------|
|--4-4-4-4-4-4------------------------------------------|
|--4-4-4-4-4-4-4-4-4-4-4-4-8-8-8-8-8-8-9-9-9-9-9-9-9-9--|
|--2-2-2-2-2-2-4-4-4-4-4-4-8-8-8-8-8-8-9-9-9-9-9-9-9-9--|
|--------------2-2-2-2-2-2-6-6-6-6-6-6-7-7-7-7-7-7-7-7--|

|---------------------------------------------------|
|---------------------------------------------------|
|--4-4-4-4-4-4-------------------------8-8-8-8-8-8--|
|--4-4-4-4-4-4-4-4-4-4-4-4-8-8-8-8-8-8-8-8-8-8-8-8--|
|--2-2-2-2-2-2-4-4-4-4-4-4-8-8-8-8-8-8-6-6-6-6-6-6--|
|--------------2-2-2-2-2-2-6-6-6-6-6-6--------------|

|-------------------------------------------------------|
|-------------------------------------------------------|
|--4-4-4-4-4-4------------------------------------------|
|--4-4-4-4-4-4-4-4-4-4-4-4-8-8-8-8-8-8-9-9-9-9-9-9-9-9--|
|--2-2-2-2-2-2-4-4-4-4-4-4-8-8-8-8-8-8-9-9-9-9-9-9-9-9--|
|--------------2-2-2-2-2-2-6-6-6-6-6-6-7-7-7-7-7-7-7-7--|

|--------------------------------------------------------------------------------------|
|--------------------------------------------------------------------------------------|
|--4-4-4-4-4-4-------------------------8-8-8-8-8-8-------------------------------------|
|--4-4-4-4-4-4-4-4-4-4-4-4-8-8-8-8-8-8-8-8-8-8-8-8-8-8-8-8-8-9-9-9-9----------------8--|
|--2-2-2-2-2-2-4-4-4-4-4-4-8-8-8-8-8-8-6-6-6-6-6-6-8-8-8-8-8-9-9-9-9-11-11-11-11-11-8--|
|--------------2-2-2-2-2-2-6-6-6-6-6-6-------------6-6-6-6-6-7-7-7-7-9--9--9--9--9--6--|
00:00 / 00:00
Outros vídeos desta música
Repetir
Outros vídeos desta música
Composição de Brody Dalle
Colaboração e revisão:
  • Jennifer Cruzeiro
  • Daniel Souza
5.038 exibições
    • ½ Tom
    • A
    • Bb
    • B
    • C
    • Db
    • D
    • Eb
    • E
    • F
    • F#
    • G
    • Ab
  • Adicionar à lista

    0 comentários

    Ver todos os comentários

    Entre para oCifra Club PRO

    Tenha acesso a benefícios exclusivos no App e no Site

    • Chega de anúncios

    • Prioridade de compra em lançamentos

    • Mais recursos no app do Afinador

    • Atendimento Prioritário

    • Descontos nos produtos Cifra Club

    • Ajude a produzir mais conteúdo

    00:00 / 00:00

    Cifra Club Pro

    Aproveite o Cifra Club com benefícios exclusivos e sem anúncios
    Cifra Club Pro
    Aproveite o Cifra Club com benefícios exclusivos e sem anúncios
    OK