Enviar cifraEntrar

Cars Hiss By My Window

The Doors

Cifra: Principal
exibições 15.450
Tom: E
(riffs)           


e|-----------------------------------------------------------------------|
B|-------------------2---------------------------2-----------------------|
G|-------------------2--0-1h---------------------2--0-1h-----------------|
D|----0--1h--2--------------------0-1h-2-----------------------0-1h-2----|
A|-2---------------------------2----------------------------2------------|
E|-------------0--0--0--0---0--0--0----0---0--0--0--0----0--0--0----0----|


e|-------2---------------------| 
B|-------3--1-2h---------------|
G|-------------------0-1h-2----|
D|-----------------2-----------| 
A|-0--0--0--0---0--0-0----0----|
E|-----------------------------|


          

e|-2--4--2p------------------3b----0r------0-----------------------------------------|
B|-2---------2-4-2p------------------------------------------------------------------|
G|-2-----------------4-3-2-----------2b------0/1-------------------------------------|
D|------------------------------------------------0h2-0h2-0h2--0-----0----------2----|
A|---------------------------------------------------------------0h2----0------------|
E|------------------------------------------------------------------------3-0--------|


e|---------------------------------------------|
B|---------------------------------------------|
G|---------------------------------------------|
D|---------------0h1----0-1-2------------------|
A|-------0-1-2------2--------------------------|
E|---0-----------------------------------------|



E          A7                                                      E
...    The cars hiss by my window like the waves down on the beach.
    A7                                                      E
The cars hiss by my window like the waves down on the beach.
  B7                                A7           E B7
I got this girl beside me, but she's out of reach.
 
 
E
Headlights thru my window shining on the wall.
A7                                             E
Headlights thru my window shining on the wall.
B7                    A7                       E  B7
   Can't hear my baby    though I call and call.
 

(solo)
 

  E                 
e|--3b----0-------3b--0------0-----------3b--0------0------------0-0-0-0-0-----------------|
B|-----0--3b--0-------0--3b--0---------------0--3b--0----------3-----3-3-3-----------------|
G|------------------------------2b-0p------------------0---2/4-4-----------4/2-0p----------|
D|-----------------------------------2--------------------------------------------2--------|
A|-----------------------------------------------------------------------------------------|
E|-----------------------------------------------------------------------------------------|


  A7                                             E
e|--2/4-2-0---0----2/4-2p-0p---0-----------------------------------------------------------|
B|----------2----------------2-------------------------------------------------------------|
G|--------------------------------2/4-4-4/2-0p---2b-0p----2b---0p-0------------------0-----|
D|---------------------------------------------2------2----------2--2-0-2h-0---0--2h--0-2h-|
A|---------------------------------------------------------------------------2-------------|
E|-----------------------------------------------------------------------------------------|


      B7                     A7                        E
e|-2--4--2p------------------3b--0-----------------------------------------------------|
B|-2---------2-4-2p----------------2-0-2-3h-2h-----------------------------------------|
G|-2-----------------4-3-2----------------------2b-0p----------------------------------|
D|---------------------------------------------------2----0h2-0h2-0h2-0--------------2-|
A|----------------------------------------------------------------------0h2-2-0--------|
E|------------------------------------------------------------------------------3--0---|

           
                   B7

e|---------------------------------------------|
B|---------------------------------------------|
G|---------------------------------------------|
D|---------------0h1----0-1-2------------------|
A|-------0-1-2------2--------------------------|
E|---0-----------------------------------------|


E           A7                                     E
...         Window starts to tremble with a sonic boom.
A7                                     E
Window starts to tremble with a sonic boom,  boom.
    B7                     A7                 E    B7
Oh  Cold girl I'll kill you in a darkened room.

E
Yeah, woo
Ride
Ride on
Weooooo!
Wawa, eooo!
Oooo, owa, owaaa!
Wa, waaaaea!
Ooo, wa, wa, wa, wa, waa!
Uh-huh
  • 1
  • 2
  • 3
  • 4
  • 5
  • 6
  • 7
  • 8
  • 9
  • 10
  • 11
  • 12
    Acordes para:
      Composição: Jim Morrison / John Densmore / Ray Manzarek / Robby KriegerColaboração e revisão:
      • Thiago

      0 comentários

        mostrar mais comentários

        Conseguiu tocar?

        0tocaram0ainda não

        Grave um vídeo tocando Cars Hiss By My Window e mande pra gente!

        00:00 / 00:00
        outros vídeos desta música
        repetirqualidadeautomática
        • automática
        Outro vídeos desta música
          00:00 / 00:00
          automática
          • automática
          Acordes para:violão e guitarra
          dificuldadeexibiçõescontribuições
          1 versão de Tab de baixoexibiçõescontribuições
          1 versão de Guitar Proformatodownloadscontribuição
          fecharplay/pause subir/descer velocidade
            Acordes para:violão e guitarra
            acordes
            fechar
            OK