Cifra Club

Light my fire

The Doors

Tab de baixo: Principal
exibições 19.147
INTRO

G |------------------------------0-3---------------|
D |----------4-7----------0-3--1-------------------|
A |---2-5--5-------0-3--1---------------3-6--------|
E |-3------------1--------------------4------5-5-5-|
    G      D     F      Bb     Eb     Ab     A
                                             |----|
                                             Várias 
                                             Vezes
  You know that it would be untrue...
      (Repetir várias vezes)
G |-----------------------------|
D |-----------------------------|
A |---3-7-3-------------0-4-0---|
E |-5-------3---------2-------2-|
    Am      G-sétima  F#m
              de Am 

   Come on baby, light my fire
G |-------------------------------|
D |-----------------4-7-5-4---4---|
A |---2-5----4-7--5---------7---5-|
E |-3------5----------------------|
    G      A      D

   Come on baby, light my fire
G |-------------------------------|
D |-----------------4-7----1-4----|
A |---2-5----4-7--5------2--------|
E |-3------5----------------------|
    G      A      D      B7

   Try to set the night on fire
G |-------------------------------|
D |----------4-7----6-9-7-6-------|
A |---2-5--5------7---------7-7-7-|
E |-3-----------------------0-0-0-|
    G      D      E         |----|
                            Várias 
                            Vezes

Solo - teclado, guitarra
 Repetir,repetir,repetir
G |---------------|
D |.-------------.|
A |.--3-7----5-9-.|
E |-5------7------|
    Am     Bm
  Final
G |-----------------|
D |----------2-5----|
A |---0-3--3------5-|
E |-1---------------|
    F      C     D


_______________________________________________________
Contribuição: Marcos(marcoskhan@bol.com.br)
Composição: The Doors

0 comentários

    mostrar mais comentários

    Conseguiu tocar?

    2tocaram0ainda não

    Grave um vídeo tocando Light my fire e mande pra gente!

    00:00 / 00:00
    outros vídeos desta música
    repetirqualidadeautomática
    Outro vídeos desta música
      00:00 / 00:00
      automática
      OK